Song name
# A B C D E F G H I J K L M N O P Q R S T U V W X Y Z

You Me At Six - Contagious Chemistry tab

(/) Slide Up  (\) Slide Down  (h) Hammer On  (p) Pull Off  (b) Bend (r) Release (v) Vibrato

Well... this is one of my favorite songs of Hold me Down, is really easy to play. Enjoy.

Intro
E|--------------|  
B|--------------|
G|--6--4--2--2--|
D|--6--4--2--2--|X4
A|--4--2--0--0--|
E|--------------|

E|-----|
B|-----|
G|--4--| 
D|--4--| ring
A|--2--| 
E|-----|

Verse                      
E|-----------|--------|   |-----|
B|-X4-X4-X4--|--------|   |-----|
G|--6--------|--------|X2 |-----|
D|--6--7--6--|--9--7--|   |--9--| ring
A|--4--7--6--|--9--7--|   |--9--|
E|-----5--5--|--7--5--|   |--7--|

Chorous
E|--------------|
B|--------------|
G|--6--4--------|
D|--6--4--7--7--|X4
A|--4--2--7--7--|
E|--------5--5--|

Repeat the verse and the chorous one more time

Bridge
E|--------------|
B|--------------|
G|--6--4--2--2--|
D|--6--4--2--2--|X4
A|--4--2--0--0--|
E|--------------|

E|--------------------|     |--------------------|  
B|-X2---X2---X2-------|     |-X2---X2----X12-x12-|
G|--6xx--4xx----------|     |--6xx--4xx----------|
D|--6xx--4xx--4xx--4--|X3   |--6xx--4xx----4--6--|X1
A|--4xx--2xx--4xx--4--|     |--4xx--2xx----4--6--|
E|------------2xx--2--|     |--------------2--4--|  

Ring
E|--------------------------------|    |-----|
B|--------7-----------------------|    |-----|
G|--------8--------8-----------6--|    |--8--|
D|-----6-----------9-----------7--|X4  |--9--| ring
A|--4-----------9-----------7-----|    |--9--|
E|-----------7-----------5--------|    |--7--|

End
E|------------|
B|-X4-X4--55--|
G|--6-----66--|
D|--6--7--66--|
A|--4--7--44--|
E|-----5------|

ker_plunk8@hotmail.com
Tap to rate this tab
 
# A B C D E F G H I J K L M N O P Q R S T U V W X Y Z