You Me At Six - Always Attract tab

------------------------------------
ALWAYS ATTRACT by YOU ME AT SIX
------------------------------------

standard tuning :)

INTRO

|-----3-----2-----3-----7-----7---|-----3-----2-----3-----7-----7---|
|-------------------------8-----8-|-------------------------8-------|
|---0---0-----0-----0-------0-----|---0---0-----0-----0-------0---0-|
|-0-------0-----0-----0-----------|-0-------0-----0-----0-----------|
|---------------------------------|---------------------------------|
|---------------------------------|---------------------------------|

|------3-----2-----3----2------3---|------3-----2-----3-----2-----3~--|
|----------------------------------|----------------------------------|
|----------------------------------|----------------------------------|
|--2-2---2-2---2-2---2-2---2-2---2-|--4-4---4-4---4-4---4-4---4-4-----|
|----------------------------------|----------------------------------|
|----------------------------------|----------------------------------|


VERSE (same as intro, just the beginning changes a bit)

|-----3p2---2-----3-----7-----7---|-----3-----2-----3-----7-----7---|
|-------------------------8-----8-|-------------------------8-------|
|---0---------0-----0-------0-----|---0---0-----0-----0-------0---0-|
|-0-------0-----0-----0-----------|-0-------0-----0-----0-----------|
|---------------------------------|---------------------------------|
|---------------------------------|---------------------------------|

|------3-----2-----3----2------3---|------3-----2-----3-----2-----3~--|
|----------------------------------|----------------------------------|
|----------------------------------|----------------------------------|
|--2-2---2-2---2-2---2-2---2-2---2-|--4-4---4-4---4-4---4-4---4-4-----|
|----------------------------------|----------------------------------|
|----------------------------------|----------------------------------|

VERSE 2x, then


PRE-CHORUS (00:41)

|---------------------------------|---------------------------------|
|-----5-----5-----5-----5-----5---|-----7-----7-----7-----7-----7---|
|---------------------------------|---------------------------------|
|---------------------------------|---------------------------------|
|-3-3---3-3---3-3---3-3---3-3---3-|-5-5---5-5---5-5---5-5---5-5---5-|
|---------------------------------|---------------------------------|

|----------------------------------|-----------------------------------|
|-----7-----8-----10------8----7---|-----12-----10-----8-----7-----8~--|
|----------------------------------|-----------------------------------|
|----------------------------------|-----------------------------------|
|-7-7---7-7---7-7----7-7---7-7---7-|-9-9----9-9----9-9---9-9---9-9-----|
|----------------------------------|-----------------------------------|

|---------------------------------|---------------------------------|
|-----5-----5-----5-----5-----5---|-----7-----7-----7-----7-----7---|
|---------------------------------|---------------------------------|
|---------------------------------|---------------------------------|
|-3-3---3-3---3-3---3-3---3-3---3-|-5-5---5-5---5-5---5-5---5-5---5-|
|---------------------------------|---------------------------------|

|----------------------------------|--------------------------------------|
|-----7-----8-----10------8----7---|-----12-----12-----12-----12-----12~--|
|----------------------------------|--------------------------------------|
|----------------------------------|--------------------------------------|
|-7-7---7-7---7-7----7-7---7-7---7-|-9-9----9-9----9-9----9-9----9-9------|
|----------------------------------|--------------------------------------|


CHORUS (3/4 here!)

Strum all the way trough, the single notes
I wrote down are just the ones you can hear 
more clearly, but not the only ones ringing!

|------------------------|----------------------|
|-----3--0---------7--8--|-----3p0-0------7--8--|
|------------------------|----------------------|
|------------------------|----------------------|
|------------------------|----------------------|
|--3------------7--------|--3----------7--------|

|--3---3-3-3-3-3---3-3-3-|------3-3-3-0---0-0-0-|
|--3---3-3-3-3-3---3-3-3-|------3-3-3-0---0-0-0-|
|--0---0-0-0-0-0---0-0-0-|------0-0-0-0---0-0-0-|
|--2---2-2-2-2-2---2-2-2-|------0-0-0-0---0-0-0-|
|--3---3-3-3-3-3---3-3-3-|------2-2-2-2---2-2-2-|
|------------------------|--3---3-3-3-3---3-3-3-|

|------------------------|----------------------|
|-----3--0---------7--8--|-----3p0-0------7--8--|
|------------------------|----------------------|
|------------------------|----------------------|
|------------------------|----------------------|
|--3------------7--------|--3----------7--------|

|------3-3-3-3-3---3-3-3-|--3---3-3-3-3---3-3-3-|
|--3---3-3-3-3-3---3-3-3-|--3---3-3-3-3---3-3-3-|
|--0---0-0-0-0-0---0-0-0-|--0---0-0-0-0---0-0-0-|
|--2---2-2-2-2-2---2-2-2-|--0---0-0-0-0---0-0-0-|
|--3---3-3-3-3-3---3-3-3-|--2---2-2-2-2---2-2-2-|
|------------------------|--3---3-3-3-3---3-3-3-|


repeat VERSE, PRE-CHORUS and CHORUS, then


end on
|------------------------|
|--3~--------------------|
|--0~--------------------|
|--2~--------------------|
|--3~--------------------|
Tap to rate this tab
 
# A B C D E F G H I J K L M N O P Q R S T U V W X Y Z