Song name
# A B C D E F G H I J K L M N O P Q R S T U V W X Y Z

You Me At Six - Stay With Me Acoustic tab

    Helloooo, this is my first tab, but I'm 99% sure it's accurate. :]


    Artist - You Me At Six.
    Song - Stay With Me (Acoustic)



Intro;


e|--------------------------------------------------|
B|----6-6-6-6---5-5-5-5----10-10-10-10--------------|
G|----X-X-X-X---5-5-5-5----10-10-10-10--------------|
D|----3-3-3-3---5-5-5 5-----8--8--8--8--------------|
A|----5-5-5-5---3-3-3-3-----8--8--8--8--------------|
D|----0-0-0-0---------------8--8--8--8--------------|  X2



Preverse/Verse.

NOTE - This is just the way I play it, you don't have to do it like this.

Verse section 1;

e|-------1------------------------------------------|
B|---------3-------5-------------10-10~-------------|
G|-----2-----0---5---5-----------10-10~-------------|
D|---0----------------------------------------------|
A|-------------3-------3--/10-10---------10\---------|
D|--------------------------------------------------|

Verse section 2;

e|-------1--------------------5-5~------------------|
B|---------3-------5----------3-3~------------------|
G|-----2-----0---5---5------5-----------------------|
D|---0----------------------------------------------|
A|-------------3-------3--1-------------------------|
D|--------------------------------------------------|


Repeat until pre-chorus.


Pre-chorous;


e|---1~~~~--1-1-1-1-1-1-1------|
B|---3~~~~--3-3-3-3-3-3-3------|
G|---2~~~~--2-2-2-2-2-2-2------|
D|---0~~~~--0-0-0-0-0-0-0------|
A|---0~~~~--0-0-0-0-0-0-0------|
D|---0~~~~--0-0-0-0-0-0-0------|




Chorus;


e|--------------------------------------------------|
B|----6-6-6-6---5-5-5-5----10-10-10-10--------------|
G|----X-X-X-X---5-5-5-5----10-10-10-10--------------|
D|----3-3-3-3---5-5-5 5-----8--8--8--8--------------|
A|----5-5-5-5---3-3-3-3-----8--8--8--8--------------|
D|----0-0-0-0---------------8--8--8--8--------------|  X2


Repeat verse, section 1 and 2.

Repeat pre-chorus, palm muted this time though.

Repeat chorus X4 this time.




Bridge;


e|-----------------------------------------------------|
B|--------------------------6-6-6-6-6-6-6-6-6-6--------|
G|----5-5-5-5-5--7-7-7-7-7--7-7-7-7-7-7-7-7-7-7--------|
D|----3-3-3-3-3--5-5-5 5-5--7-7-7-7-7-7-7-7-7-7--------|
A|----3-3-3-3-3--5-5-5-5-5--5-5-5-5-5-5-5-5-5-5--------|
D|----3-3-3-3-3--5-5-5-5-5--0-0-0-0-0-0-0-0-0-0--------|



Pre-chorus;


e|--------1----------1---------1-------1-1-1-1-1-1-1-------|
B|----------3----------3---------3-----3-3-3-3-3-3-3-------|
G|------2-----2----2-----2---2-----2~--2-2-2-2-2-2-2-------|
D|----0----------0---------0-----------0-0-0-0-0-0-0-------|
A|---------------------------------------------------------|
D|---------------------------------------------------------|



Repeat chorus X4 again.

End on;


e|----1~---------|
B|----3~---------|
G|----2~---------|
D|----0~---------|
A|----0~---------|
D|----0~---------|



Legend -

~ = Let ring.
X = String mute.
\ = Slide down the fret board.
/ = Slife up the fret board.
Tap to rate this tab
 
# A B C D E F G H I J K L M N O P Q R S T U V W X Y Z