You Me At Six - Always Attract tab

My first tab i think it's generally right :)
i think there is 2 guitar parts but here is one of them

Intro and verse

e------7-7-7-7-7----|
B------8-7-8-7-8----|
G------7-7-7-7-7----|
D----9--------------|   x2
A--10---------------|
E-------------------|

e-----7-7-7-7-7----7-7-7-7-7-|
B-----8-7-8-7-8----8-7-8-7-8-|
G-----7-7-7-7-7----7-7-7-7-7-|
D----9------------9----------|
A--7------------9------------|
E----------------------------|

Pre Chorus x2

e-----------------------------------------------------|
B-----------------------------------------------------|
G-----------------------------------------------------|
D-----9-----9-----9-----9-----9-----9-----9-----9-----|
A---10-10-10-10-10-10-10-10-10-10-10-10-10-10-10-10---|
E--8-----8-----8-----8-----10----10----10----10----10-|

e----------------------------------------------------|
B----------------------------------------------------|
G----7---7---7---7---7---7---7---7-------------------|
D---9-9-9-9-9-9-9-9-9-9-9-9-9-9-9-9------------------|
A--7---7---7---7---10--10--10--10--10----------------|
E----------------------------------------------------|


Chorus Dadd11 = e--3
                B--3
                G--0
                D--0
                A--0
                E--2

G          Cadd9
That night, i slept,
G           Cadd9
on your side, of the bed,
Em
so,
Dadd11               Cadd9
I was ready when you got home,
G                Cadd9
We'relike noughts and,
G         Cadd9
crosses in that,
Em         Dadd11  Cadd9
opposites, always attract


Bridge
The chords for the bridge are

G                      In that order but down strum the lower notes 4 times
Dadd11                 Then upstroke the higher notes once. Listen to the
Cadd9                  song and you'll pick it up, after a while it starts
G                      strum normally.
Tap to rate this tab
 
# A B C D E F G H I J K L M N O P Q R S T U V W X Y Z