You Me At Six - Underdog tab

Tabbed by:sam_stroud151
         Email:sam_stroud151@live.co.uk

guitar 1 (max) and guitar 2 (chris) are both in standard tuning
listen to the song for the timing!
this is 100% correct!
please rate and comment :)

VERSE:

GUITAR 1:
e|--------------------------|(X6)
B|--------------------------|
G|--------------------------|
D|--333---------------------|
A|--444--444--3333333-------|
E|-------666--4444444-------|


PRE-CHORUS:

GUITAR 1:
e|------------|------------| STRUM UP AND DOWN
B|------------|------------|
G|------------|------------|
D|---8--------|----8~-/----|
A|---8-(X16)--|----8~-/----|
E|---6--------|----6~-/----|

GUITAR 2:
e|------------|------------| STRUM UP AND DOWN
B|------------|------------|
G|--10--------|---10~-/----|
D|---X-(X16)--|----X-------|
A|---8--------|----8~-/----|
E|------------|------------|

CHORUS:

GUITAR 1:
e|-----|-----|-----|-----|(X2)
B|-----|-----|-----|-----|LISTEN TO THE SONG FOR THE STRUM PATTERN
G|-----|-----|--6--|-----|
D|--8--|--4--|--6--|--6--|
A|--8--|--4--|--4--|--6--|
E|--6--|--2--|-----|--4--|

GUITAR 2:
e|--------------------------------------------------------------------|(x2)
B|--------------------------------------------------------------------|
G|--------6---8-6---6v---6---8-6---6v---6---8-6---6-5b6r5b6r5b6r5-----|
D|---/8-----8-----8----8---8-----8----8---8-----8---------------------|
A|--------------------------------------------------------------------|
E|--------------------------------------------------------------------|

GUITAR 1:               GUITAR 2:
e|----------------      e|----------------|
B|----------------      B|----------------|
G|----------------      G|----------------|
D|--8~------------      D|--8v--8--6--8---|
A|--8~------------      A|----------------|
E|--6~--6--4--6---      E|----------------|


VERSE 2:

GUITAR 1:
e|--------------------------|(X4)
B|--------------------------|
G|--------------------------|
D|--333---------------------|
A|--444--444--3333333-------|
E|-------666--4444444-------|


PRE-CHORUS 2:

GUITAR 1:
e|------------------------------------------|
B|------------------------------------------|
G|------------------------------------------|
D|--8~---6-6-6---8~-------------------------|
A|--8~---6-6-6---8~--------4-4-4-4-6-6-6-6--|
E|--6~---4-4-4---6~--------2-2-2-2-4-4-4-4--|
                           . . . . . . . .

GUITAR 2:
e|-------------------------------------------|
B|-------------------------------------------|
G|-------------------------------------------|
D|--8v---6-6-6---8v--------4-4-4-4-6-6-6-6---|
A|-------------------------------------------|
E|-------------------------------------------|
                           . . . . . . . .


CHORUS 2:

GUITAR 1:
e|-----|-----|-----|-----|(X4)
B|-----|-----|-----|-----|LISTEN TO THE SONG FOR THE STRUM PATTERN
G|-----|-----|--6--|-----|
D|--8--|--4--|--6--|--6--|
A|--8--|--4--|--4--|--6--|
E|--6--|--2--|-----|--4--|

GUITAR 2:
e|--------------------------------------------------------------------|(x4)
B|--------------------------------------------------------------------|
G|--------6---8-6---6v---6---8-6---6v---6---8-6---6-5b6r5b6r5b6r5-----|
D|---/8-----8-----8----8---8-----8----8---8-----8---------------------|
A|--------------------------------------------------------------------|
E|--------------------------------------------------------------------|


BRIDGE:

GUITAR 1:
e|------------------------------------------|
B|------------------------------------------|
G|------------------------------------------|
D|-3-------------------3-3-3-3-3------------|
A|-3---3-3-3-3-3-3-3-3-3-3-3-3-3------------|
E|-1---1-1-1-1-1-1-1-1-1-1-1-1-1------------|
       . . . . . . . .

GUITAR 2:
e|-------------------------------------------|
B|-------------------------------------------|
G|-5-------------------5-5-5-5-5-------------|
D|-5---5-5-5-5-5-5-5-5-5-5-5-5-5-------------|
A|-3---3-3-3-3-3-3-3-3-3-3-3-3-3-------------|
E|-------------------------------------------|
       . . . . . . . .

then...

GUITAR 1:
e|-----|-----|-----|-----|(X4) STRUM PATTERN SAME AS CHORUS
B|-----|-----|-----|-----|
G|-----|--6--|-----|-----|
D|--4--|--6--|--6--|--6--|
A|--4--|--4--|--6--|--6--|
E|--2--|-----|--4--|--4--|

GUITAR 2:
e|---------4---------4---------4---------4-----|(X14)
B|-------4---4-----4---4-----4---4-----4---4---|
G|---5h6-------5h6-------5h6-------5h6---------|
D|---------------------------------------------|
A|---------------------------------------------|
E|---------------------------------------------|

then...

GUITAR 1:
e|------------------------------------------|
B|------------------------------------------|
G|------------------------------------------|
D|-3-------------------3-3-3-3-3------------|
A|-3---3-3-3-3-3-3-3-3-3-3-3-3-3------------|
E|-1---1-1-1-1-1-1-1-1-1-1-1-1-1------------|
       . . . . . . . .

GUITAR 2:
e|-------------------------------------------|
B|-------------------------------------------|
G|-5-------------------5-5-5-5-5-------------|
D|-5---5-5-5-5-5-5-5-5-5-5-5-5-5-------------|
A|-3---3-3-3-3-3-3-3-3-3-3-3-3-3-------------|
E|-------------------------------------------|
       . . . . . . . .

CHORUS 3:

GUITAR 1:
e|--------|--------|-----|-----|STRUM THE FINAL 2 CHORDS IN THE NORMAL
B|--------|--------|-----|-----|STRUMMING PATTERN
G|--------|--------|--6--|-----|
D|8---8---|4---4---|--6--|--6--|
A|8---8---|4---4---|--4--|--6--|
E|6---6---|2---2---|-----|--4--|

GUITAR 2:
e|-----------------------------------------------------------|
B|-----------------------------------------------------------|
G|---------------------------------------6-6-8-6-8-6-5brbr---|
D|---/8v---------------/10v----------8-8---------------------|
A|-----------------------------------------------------------|
E|-----------------------------------------------------------|

then...

GUITAR 1:
e|-----|-----|-----|-----|(X4)
B|-----|-----|-----|-----|LISTEN TO THE SONG FOR THE STRUM PATTERN
G|-----|-----|--6--|-----|
D|--8--|--4--|--6--|--6--|
A|--8--|--4--|--4--|--6--|
E|--6--|--2--|-----|--4--|

GUITAR 2:
e|--------------------------------------------------------------------|(x4)
B|--------------------------------------------------------------------|
G|--------6---8-6---6v---6---8-6---6v---6---8-6---6-5b6r5b6r5b6r5-----|
D|---/8-----8-----8----8---8-----8----8---8-----8---------------------|
A|--------------------------------------------------------------------|
E|--------------------------------------------------------------------|

THEN END ON...

GUITAR 1:              GUITAR 2:
e|--------------       e|--------------|
B|--------------       B|--------------|
G|--------------       G|--------------|
D|------8~------       D|------8v------|
A|------8~------       A|--------------|
E|------6~------       E|--------------|

***********************************

| /   slide up
| \   slide down
| h   hammer-on
| p   pull-off
| ~   vibrato
| +   harmonic
| x   Mute note
| b   Bend
| pb  Pre-bend
| br  Bend release
| pbr Pre-bend release
| brb Bend release bend

************************************
Tap to rate this tab
 
# A B C D E F G H I J K L M N O P Q R S T U V W X Y Z