Song name
# A B C D E F G H I J K L M N O P Q R S T U V W X Y Z

You Me At Six - Stay With Me Acoustic tab

From they're ep Stay With Me 
Enjoy :D
sean_sacdalan@yahoo.com

DROP D

Intro

Lead Guitar (Chris)
e|-----------------------------------------------------------|
B|--6-10-8-6-10-8-6-10--8-6-5-8-6-5-8-5--6-8-6-10~-6-8-6-10~-|
G|-----------------------------------------------------------|
D|-----------------------------------------------------------|   x2
A|-----------------------------------------------------------|
D|-----------------------------------------------------------

Rhythm Guitar (Max)
e|--5---------3----------8--------8-----------------|
B|--6---------5----------10-------10----------------|
G|--7-x8------5-x8-------10-x5----10-x5-------------|
D|--7---------5----------8--------8-----------------| x2
A|--5---------3----------8--------8-----------------|
D|-----------------------8--------8-----------------|

Verse 1

Lead Guitar (Chris)
e|----------------------------------------|
B|-------6-----------5---------10~--------|
G|---------------------5-------10-~-------|
D|----7----7-----5------------------------| Repeat until verse ends
A|--5----------3------------8-------------|
D|-----------------------8----------------|

Pre Chorus

Lead Guitar (Chris)
e|--------------------------------------|
B|--10-8-6-5-3~-------------------------|
G|--------------------------------------|
D|--------------------------------------|
A|--------------------------------------|
D|--------------------------------------|

Chorus

Lead Guitar (Chris)
e|-----------------------------------------------------------|
B|--6-10-8-6-10-8-6-10--8-6-5-8-6-5-8-5--6-8-6-10~-6-8-6-10~-|
G|-----------------------------------------------------------|
D|-----------------------------------------------------------|   x2
A|-----------------------------------------------------------|
D|-----------------------------------------------------------

Rhythm Guitar (Max)
e|--5---------3----------8-------------------------|
B|--6---------5----------10------------------------|
G|--7-x8------5-x8-------10-x10--------------------|
D|--7---------5----------8-------------------------| x2
A|--5---------3----------8-------------------------|
D|-----------------------8-------------------------|

Verse 2

Lead Guitar (Chris)
e|----------------------------------------|
B|-------6-----------5---------10~--------|
G|---------------------5-------10-~-------|
D|----7----7-----5------------------------| Repeat until verse ends
A|--5----------3------------8-------------|
D|-----------------------8----------------|

Lead Guitar (Max) Palm Mute All
e|----------------------------------------|
B|----------------------------------------|
G|---7------5-----3-----------------------|
D|---7-x8---5-x8--3-x8--------------------| Repeat until verse ends
A|---5------3-----1-----------------------|
D|----------------------------------------|
                                
Lead Guitar (Chris)
e|--------------------------------------|
B|--10-8-6-5-3~-------------------------|
G|--------------------------------------|
D|--------------------------------------|
A|--------------------------------------|
D|--------------------------------------|

Rhythm Guitar (Max)
e|--------------------------------------|
B|--------------------------------------|
G|--------555555555---------------------|
D|--------555555555---------------------|
A|--------777777777---------------------|
D|--------------------------------------|

Chorus

Lead Guitar (Chris)
e|-----------------------------------------------------------|
B|--6-10-8-6-10-8-6-10--8-6-5-8-6-5-8-5--6-8-6-10~-6-8-6-10~-|
G|-----------------------------------------------------------|
D|-----------------------------------------------------------|   x2
A|-----------------------------------------------------------|
D|-----------------------------------------------------------

Rhythm Guitar (Max)
e|--5---------3----------8-------------------------|
B|--6---------5----------10------------------------|
G|--7-x8------5-x8-------10-x10--------------------|
D|--7---------5----------8-------------------------| x2
A|--5---------3----------8-------------------------|
D|-----------------------8-------------------------|

Bridge

Both Guitars (Chris and Max)
e|-----------------------------------------|
B|-----------------------------------------|
G|--5------7------5------------------------|
D|--3-x8---5-x8---0-x8---------------------|
A|--3------5------0------------------------|
D|--3------5------0------------------------|

Chorus

Lead Guitar (Chris)
e|-----------------------------------------------------------|
B|--6-10-8-6-10-8-6-10--8-6-5-8-6-5-8-5--6-8-6-10~-6-8-6-10~-|
G|-----------------------------------------------------------|
D|-----------------------------------------------------------|   x2
A|-----------------------------------------------------------|
D|-----------------------------------------------------------

Rhythm Guitar (Max)
e|--5---------3----------8-------------------------|
B|--6---------5----------10------------------------|
G|--7-x8------5-x8-------10-x10--------------------|
D|--7---------5----------8-------------------------| x2
A|--5---------3----------8-------------------------|
D|-----------------------8-------------------------|


Hope you like this
-Sean Sacdalan :D
Tap to rate this tab
 
# A B C D E F G H I J K L M N O P Q R S T U V W X Y Z