Song name
# A B C D E F G H I J K L M N O P Q R S T U V W X Y Z

You Me At Six - Stay With Me tab

comment and rate this tab!!!
You me at six, stay with me

Guitar 1:
e|--------------------------------------------------|
B|--------------------------------------------------|
G|----7-7-7----5-5-5------3-3-3---------------------|
D|----7-7-7----5-5-5 -----3-3-3---------------------|
A|----5-5-5----3-3-3------1-1-1---------------------|
D|--------------------------------------------------|  X2

Guitar 2
e|--------------------------------------------------|
B|---6-10-8-6---------------------------------------|
G|--------------------------------------------------|
D|--------------------------------------------------|
A|--------------------------------------------------|
D|--------------------------------------------------| X8


Guitar 1:OPEN D

e|--------------------------------------------------|
B|--------------------------------------------------|
G|--------------------------------------------------|
D|--0-----------------------------------------------|
A|--0-----------------------------------------------|
D|--0-----------------------------------------------|




VERSE 


e|--------------------------------------------------------------|
B|------6---------------5---------------10----------------------|
G|-------------------------5------------10----------------------|
D|----7----7---------5------------------------------------------|
A|-5--------------3------------------8--------------------------|
D|-------------------------------8------------------------------| X7


A OPEN D


CHORUS 1:


Guitar 1:
e|----------------------------------------------------------|
B|----------------------------------------------------------|
G|----7-7-7----5-5-5------3-3-3---7-7-7---10-10-10---3-3-3--|
D|----7-7-7----5-5-5 -----3-3-3---7-7-7---10-10-10---3-3-3--|
A|----5-5-5----3-3-3------1-1-1---5-5-5---8-8-8-----1-1-1---|
E|----------------------------------------------------------|  X1
Guitar 2
e|--------------------------------------------------|
B|---6-10-8-6---------------------------------------|
G|--------------------------------------------------|
D|--------------------------------------------------|
A|--------------------------------------------------|
D|--------------------------------------------------| X8


VERSE 2

e|--------------------------------------------------------------|
B|------6---------------5---------------10----------------------|
G|-------------------------5------------10----------------------|
D|----7----7---------5------------------------------------------|
A|-5--------------3------------------8--------------------------|
D|-------------------------------8------------------------------| X4

2nd part of verse2
e|---1111-5555-1111-3333-1111-5~---------------------------|
B|---------------------------------------------------------|
G|---------------------------------------------------------|
D|---------------------------------------------------------| 
A|---------------------------------------------------------|
D|---------------------------------------------------------| x2

D PALM MUTED!



e|----------------------------------------------------------|
B|----------------------------------------------------------|
G|----7-7-7----5-5-5------3-3-3---7-7-7---10-10-10---3-3-3--|
D|----7-7-7----5-5-5 -----3-3-3---7-7-7---10-10-10---3-3-3--|
A|----5-5-5----3-3-3------1-1-1---5-5-5---8-8-8-----1-1-1---|
E|----------------------------------------------------------|  X2

Guitar 2
e|--------------------------------------------------|
B|---6-10-8-6---------------------------------------|
G|--------------------------------------------------|
D|--------------------------------------------------|
A|--------------------------------------------------|
D|--------------------------------------------------| X16


BRIDGE

GUITAR 1
e|--------------------------------------------------|
B|--------------------------------------------------|
G|--------------------------------------------------|
D|----3------5---------0----------------------------|
A|----3--X8--5--X8-----0--X16-----------------------|
E|----3------5---------0----------------------------| X4

GUITAR 2
e|---------------------------------------------------------|
B|---6h8-6-10-6h8-6-10-6--6666-8888-10101010-8888-8h10-6---|
G|---------------------------------------------------------|
D|---------------------------------------------------------|
A|---------------------------------------------------------|
D|---------------------------------------------------------| 
                                                                              } 2x
e|-----------------------5555-6666-88888888-----------------|
B|---6h8-6-10-6h8-6-10-6------------------------------------|
G|----------------------------------------------------------|
D|----------------------------------------------------------|
A|----------------------------------------------------------|
D|----------------------------------------------------------| 



Guitar 1: OPEN D

Guitar 2:

e|---------------------------------------------------------------|
B|------6---------------6-------------6--------------------------|
G|-------------------------7--------------(--7-----)-------------|
D|----7----7---------7-------------7------(-----X5-)-------------|
A|-5--------------5------------5----------(--5-----)-------------|
E|---------------------------------------------------------------| X1


CHORUS:


e|--------------------------------------------------|
B|--------------------------------------------------|
G|----7-7-7----5-5-5------3-3-3---------------------|
D|----7-7-7----5-5-5 -----3-3-3---------------------|
A|----5-5-5----3-3-3------1-1-1---------------------|
E|--------------------------------------------------|  X4

Guitar 2
e|--------------------------------------------------|
B|---6-10-8-6---------------------------------------|
G|--------------------------------------------------|
D|--------------------------------------------------|
A|--------------------------------------------------|
D|--------------------------------------------------| X16
Tap to rate this tab
 
# A B C D E F G H I J K L M N O P Q R S T U V W X Y Z