Song name
# A B C D E F G H I J K L M N O P Q R S T U V W X Y Z

You Me At Six - The Consequence tab

Worked it out by ear so probably wrong but its close enough :)
Tuning:Drop - D (DADGBe)

Intro:
e|----------------------------------------------------------|
B|----------------------------------------------------------|
G|----------------------------------------------------------|
D|-XX-XX-2-7755--1212121212121212--2-7755--1010101010101010-|
A|-XX-XX-2-7755--1212121212121212--2-7755--1010101010101010-|
D|-XX-XX-2-7755--1212121212121212--2-7755--1010101010101010-|

e|------------------------------------------------------------|
B|------------------------------------------------------------|
G|------------------------------------------------------------|
D|-2-7755--1212121212121212--5555555577775555-----------------|
A|-2-7755--1212121212121212--5555555577775555-----------------|
D|-2-7755--1212121212121212--5555555577775555-----------------|

Verse 1:
e|-----------------------------------------------------------------|
B|-----------------------------------------------------------------|
G|-----------------------------------------------------------------|
D|-2-777-5-121212121212----2-777-5-101010101010--------------x3----|
A|-2-777-5-121212121212----2-777-5-101010101010--------------------|
D|-2-777-5-121212121212----2-777-5-101010101010--------------------|
     ...   . . . . . .       ...   . . . . . .
Then repeat once more without palm muting it.

Pre Chorus:
e|------------------------------------------------------------------|
B|------------------------------------------------------------------|
G|------------------------------------------------------------------|
D|-2-777-5-121212121212--55555555-77775555-555555-77777777----------|
A|-2-777-5-121212121212--55555555-77775555-555555-77777777----------|
D|-2-777-5-121212121212--55555555-77775555-555555-7777777-----------|
                                            .....

Chorus 1:
Lead guitar
e|------------10---------------------------------10---------------------------|
B|-5-5-7-7-8p7--8p7-7h8p7-9-9-10-10---5-5-7-7-8p7--7h8p7-7-7-9-9---x2---------|
G|----------------------------------------------------------------------------|
D|----------------------------------------------------------------------------|
A|----------------------------------------------------------------------------|
D|----------------------------------------------------------------------------|

Backing guitar
e|----------------------------------------------------------------------|
B|----------------------------------------------------------------------|
G|----------------------------------------------------------------------|
D|-22222222-55555555-0000000000000000-------2---777---------------------|
A|-22222222-55555555-0000000000000000-(x2)--2---777---------------------|
D|-22222222-55555555-0000000000000000-------2---777---------------------|

Verse 2:
e|----------------------------------------------------------------|
B|----------------------------------------------------------------|
G|----------------------------------------------------------------|
D|-2-777-5-121212121212----2-777-5-101010101010-------------------|
A|-2-777-5-121212121212----2-777-5-101010101010-----x2------------|
D|-2-777-5-121212121212----2-777-5-101010101010-------------------|

e|--------------------------------------------------------------------------|
B|--------------------------------------------------------------------------|
G|--------------------------------------------------------------------------|
D|-2-77-5-----------------------2-77-55-10-10-10-10-10-10-------------------|
A|-2-77-5-----------------------2-77-55-10-10-10-10-10-10-------------------|
D|-2-77-5-----------------------2-77-55-10-10-10-10-10-10-------------------|

Chorus 2:
Lead guitar
e|------------10---------------------------------10---------------------------|
B|-5-5-7-7-8p7--8p7-7h8p7-9-9-10-10---5-5-7-7-8p7--7h8p7-7-7-9-9---x2---------|
G|----------------------------------------------------------------------------|
D|----------------------------------------------------------------------------|
A|----------------------------------------------------------------------------|
D|----------------------------------------------------------------------------|

Backing guitar
e|----------------------------------------------------------------------|
B|----------------------------------------------------------------------|
G|----------------------------------------------------------------------|
D|-22222222-55555555-0000000000000000-----------------------------------|
A|-22222222-55555555-0000000000000000-(x2)------------------------------|
D|-22222222-55555555-0000000000000000-----------------------------------|

e|-------10------------------------------------------------|
B|-6-5------7-7-7-7-9-9-10-10-------x4---------------------|
G|-----7---------------------------------------------------|
D|---------------------------------------------------------|
A|---------------------------------------------------------|
D|---------------------------------------------------------|

Backing guitar
e|----------------------------------------------------------------------|
B|----------------------------------------------------------------------|
G|----------------------------------------------------------------------|
D|-22222222-55555555-0000000000000000-----------------------------------|
A|-22222222-55555555-0000000000000000-(x2)------------------------------|
D|-22222222-55555555-0000000000000000-----------------------------------|

Pre-chorus:
e|-------------------------------------------------------------|
B|-7-9-7---9-9-9-9-10-10-10-10---7-9-7---7-7-7-7-9-9-9-9---x3--|
G|-------7-----------------------------7-----------------------|
D|-------------------------------------------------------------|
A|-------------------------------------------------------------|
D|-------------------------------------------------------------|

e|-------10-------------10-----------|
B|-7~-9~----7-9-9-10-10----7-9-10----|
G|-----------------------------------|
D|-----------------------------------|
A|-----------------------------------|
D|-----------------------------------|

Then repeat the second chorus.

Bridge:
e|---------------------------------------------|
B|---------------------------------------------|
G|---------------------------------------------|
D|-2-5-0---------------------------------------|
A|-2-5-0-(x2)----------------------------------|
D|-2-5-0---------------------------------------|

e|-------------------------------------------------|
B|-------------------------------------------------|
G|-------------------------------------------------|
D|-22222222-55555555-00000000--(12-----------------|
A|-22222222-55555555-00000000--(12-x16-------------|
D|-22222222-55555555-00000000--(12-----------------|
    .......  .......  .......

The bar chord on 12th frete play 16x.

Pre chorus:
e|-------------10-------------|
B|-5-5-7-7-8p7---8p7----------|
G|----------------------------|
D|----------------------------|
A|----------------------------|
D|----------------------------|

Chorus 4:
Lead guitar
e|------------10---------------------------------10---------------------------|
B|-5-5-7-7-8p7--8p7-7h8p7-9-9-10-10---5-5-7-7-8p7--7h8p7-7-7-9-9---x4---------|
G|----------------------------------------------------------------------------|
D|----------------------------------------------------------------------------|
A|----------------------------------------------------------------------------|
D|----------------------------------------------------------------------------|

Backing guitar
e|----------------------------------------------------------------|
B|----------------------------------------------------------------|
G|----------------------------------------------------------------|
D|-22222222-55555555-0000000000000000-------2---------------------|
A|-22222222-55555555-0000000000000000-(x2)--2---------------------|
D|-22222222-55555555-0000000000000000-------2---------------------|
Tap to rate this tab
 
# A B C D E F G H I J K L M N O P Q R S T U V W X Y Z