Song name
# A B C D E F G H I J K L M N O P Q R S T U V W X Y Z

You Me At Six - The Consequence tab

Just for anybody who wants to learn it and couldn't find a decent tab. Most
of this is other peoples tabs but I've added bits that I have worked out by
ear and watching live. I also changed some bits from other tabs to what I
think is right or just sounds better
Hope its right :)
oh, this is just for ONE GUITAR btw so enjoy :D

Intro
(Here I use the neck pick up turned down alot)
e|---------------------------------------------|
B|---------------------------------------------|
G|---------------------------------------------|
D|--2-7755-121212121212--2-7755-101010101010---|
A|--2-7755-121212121212--2-7755-101010101010---|
D|--2-7755-121212121212--2-7755-101010101010---|

e|-----------------------------------------|
B|-----------------------------------------|
G|-----------------------------------------|
D|--2-7755-121212121212--1010101010777777--|
A|--2-7755-121212121212--1010101010777777--|
D|--2-7755-121212121212--1010101010777777--|

(I change to bridge pick up here on full volume before it kicks in)
e|--xxxx------------------------------------------|
B|--xxxx------------------------------------------|
G|--xxxx--9-1414-1212-777999--9-1414-1212-999777--|
D|--xxxx--x--x-x--x-x-xxxxxx--x--x-x--x-x-xxxxxx--|
A|--xxxx--7-1212-1010-555777--7-1212-1010-777999--|
D|--xxxx------------------------------------------|

e|-------------------------------------------------------|
B|-------------------------------------------------------|
G|--9-1414-1212-777999--12121212-9999-14141414-11111111--|
D|--x--x-x--x-x-xxxxxx---x-x-x-x-xxxx--x-x-x-x--x-x-x-x--|
A|--7-1212-1010-555777--10101010-7777-12121212--9-9-9-9--|
D|-------------------------------------------------------|

Verse 1
e|---------------------------------------------------|
B|---------------------------------------------------|
G|---------------------------------------------------|
D|-2-777-5-121212121212----2-777-5-101010101010--x3--|
A|-2-777-5-121212121212----2-777-5-101010101010------|
D|-2-777-5-121212121212----2-777-5-101010101010------|
     ...    . . . . . .      ...    . . . . . .

e|---------------------------------------------|
B|---------------------------------------------|
G|---------------------------------------------|
D|--2-7755-121212121212--2-7755-101010101010---|
A|--2-7755-121212121212--2-7755-101010101010---|
D|--2-7755-121212121212--2-7755-101010101010---|

e|------------------------------------------------------------|
B|------------------------------------------------------------|
G|------------------------------------------------------------|
D|-2-7755-121212121212--1010101010-777777--1010101010-777777--|
A|-2-7755-121212121212--1010101010-777777--1010101010-777777--|
D|-2-7755-121212121212--1010101010-777777--1010101010-777777--|
                                            . . . . .
Chorus 1
e|-------------------------------------------------0/555--|
B|--------------------------------------------------------|
G|--------------------------------------------------------|
D|-22222222-55555555-5555555555555555-----777--2~---------|
A|-22222222-55555555-3333333333333333-x2--777--2~---------|
D|-22222222-55555555----------------------777--2~---------|

Verse 2
e|------------------------------------------------------|
B|------------------------------------------------------|
G|------------------------------------------------------|
D|-2-777-5-121212121212----2-777-5-101010101010---------|
A|-2-777-5-121212121212----2-777-5-101010101010-----x2--|
D|-2-777-5-121212121212----2-777-5-101010101010---------|

e|------------------------------------------------------|
B|------------------------------------------------------|
G|------------------------------------------------------|
D|-2-77-5-----------------------2-77-5------------------|
A|-2-77-5-----------------------2-77-5------------------|
D|-2-77-5-----------------------2-77-5--/-\-/-\-/-\/-\--|

Chorus 2
e|----------------------------------------------|
B|----------------------------------------------|
G|------------------------------------------9~--|
D|-22222222-55555555-5555555555555555--x4---x~--|
A|-22222222-55555555-3333333333333333-------7~--|
D|-22222222-55555555----------------------------|

Bridge
(Faint Chord here, sorry cant hear it :/)
e|--10-5-0-7~-555-777-10-5-0-7~-333-555-----|
B|------------------------------------------|
G|--------------------------------------x3--|
D|------------------------------------------|
A|------------------------------------------|
D|------------------------------------------|

Pre-Chorus
e|--0~--2~---10-0-5-0-7777--10-12-0-5-0-7777--|
B|--------------------------------------------|
G|--------------------------------------------|
D|--------------------------------------------|
A|--------------------------------------------|
D|--------------------------------------------|

Chorus 3
e|---------------------------------------------|
B|---------------------------------------------|
G|---------------------------------------------|
D|-22222222-55555555-5555555555555555------2~--|
A|-22222222-55555555-3333333333333333-x4---2~--|
D|-22222222-55555555-----------------------2~--|

Bridge 2
e|-------------------------------------------------------------------------|
B|-------------------------------------------------------------------------|
G|-----------5~------------5~-----7-999999999999--x3 7-999999999999999999--|
D|---2~--5~--5~----2~--5~--5~----------------------------------------------|
A|---2~--5~--3~----2~--5~--3~----------------------------------------------|
D|---2~--5~--------2~--5~--------------------------------------------------|
                                    ............       ........ (Fade Out)

Outro
e|-0-0-2-0-3-0-0-10-0-0-5-0-7-5-7777--|
B|------------------------------------|
G|------------------------------------|
D|------------------------------------| 
A|------------------------------------|
D|------------------------------------|
Repeat until the end ...

Then finish on
e|-0~--|
B|-----|
G|-----|
D|-----| 
A|-----|
D|-----|

Tablature Legend
----------------

x - dead note
/ - slide downwards
\ - slide upwards
~ - let note ring
. - palm mute
Tap to rate this tab
 
# A B C D E F G H I J K L M N O P Q R S T U V W X Y Z