Song name
# A B C D E F G H I J K L M N O P Q R S T U V W X Y Z

You Me At Six - Tigers And Sharks tab

Standard tuning. I saw a few errors in other tabs and decided to tab it how I hear it. 
To me it sounds like the intro chords are B minor and D, but other people are tabbing as 
E minor and G so whatever. Here's the tab.

e|-------------------------------------|
b|-------------7----------------7-8-7--|
g|-----7p0-----0-------7p0------0-0-0--|
d|---------7p0-0-----------7p0--0-0-0--|
a|-5/7-------------5/7-----------------|
E|-------------------------------------|

e|---------------------------------|
b|-------------0----------------0--|
g|-----4p0-2p0-4--------4p0-2p0-4--|
d|-------------0----------------0--|
a|-3/5---------5----3/5---------5--|
E|---------------------------------|
Tap to rate this tab
 
# A B C D E F G H I J K L M N O P Q R S T U V W X Y Z