You Me At Six - Stay With Me Acoustic tab

Stay With Me (Acoustic) 
By: You Me at Six
Tuning: Drop D
Just go in numerical order and figure out the strumming, it's not hard.
x = Don't strum.
/ = Slide

1. Intro:
|--x--x--8---8--|
|--6--x--10--10-|
|--5--5--10--10-|     x2
|--3--5--8---8--|
|--x--3--8---8--|
|--x--x--8---8--|

2. Verse:
|-------------------0---------8---|
|-------6---------------------10--|
|----------7-----------5------10--|      x5
|----7-----------5------------8---|
|--5----------3-------------8-x---|
|-------------------------8---x---|

3. Pre Chorus Thing:
|--8--------------|
|-10--8-----------|
|-10----10--9/7---|
|--x--------------|
|--x--------------|
|--x--------------|

4. Chorus (same as intro): Play 2 times.

5. Verse: Play 4 times.

6. Pre Chorus Thing.

7. Chorus: Play 4 times.

8. Bridge:
|--3--5--x--x--|                         |--3--5--8---8---|
|--5--5--x--x--|                         |--5--5--10--10--|
|--5--7--x--x--|    x2    Then:          |--5--7--10--10--|
|--3--5--0--0--|                         |--3--5--8---8---|
|--3--5--0--0--|                         |--3--5--8---8---|
|--3--5--0--0--|                         |--3--5--8---8---|

9. Different Pre Chorus:
|--------------|                         |--5--|
|--------6-----|                         |--6--|
|-----------7--|                         |--7--|
|-----7--------|    x3     Then:         |--7--|    x5
|--5-----------|                         |--5--|
|--------------|                         |--x--|

10. Chorus: Play 4 times.

11. Outro:
|--5--|
|--6--|
|--7--|
|--7--|
|--5--|
|--x--|
Tap to rate this tab
 
# A B C D E F G H I J K L M N O P Q R S T U V W X Y Z