You Me At Six - Rescue Me tab

Rescue Me - You Me At Six

Standard Tuning


Intro

I know
I'm finding it hard to breathe
And I've been drowning in my own sleep
I feel a hate crashing over me

   Bdm  F#    Ab  Fm    F#    Ab  Fm
|--1-1--2-----4--1--1--2--2---4---1--|
|--2-2--2-----4--1--1--2--2---4---1--|
|--3-3--3-----5--1--1--3--3---5---1--|
|--3-3--4-----6--3--3--4--4---6---3--|
|--1-1--4-----6--3--3--4--4---6---3--|
|--1-1--2-----4--1--1--2--2---4---1--|

   Bdm  F#    Ab  Fm    F#    Ab
|--1-1--2-----4--1--1--2--2---4--|
|--2-2--2-----4--1--1--2--2---4--|
|--3-3--3-----5--1--1--3--3---5--|
|--3-3--4-----6--3--3--4--4---6--|
|--1-1--4-----6--3--3--4--4---6--|
|--1-1--2-----4--1--1--2--2---4--|


So rescue me
(Ohh Ohh Ohh Ohhhhhh) 
so rescue me
|----------------------------------------------------------------------|
|----------------------------------------------------------------------|
|----------------------------------------------------------------------|
|--8-8-8--4-4-4-4--6-6-6--3-3-3-3--4-4-4-4-4-4-4-4--6-6-6-6-6-------8--|
|--8-8-8--4-4-4-4--6-6-6--3-3-3-3--4-4-4-4-4-4-4-4--6-6-6-6-6-------8--|
|--6-6-6--2-2-2-2--4-4-4--1-1-1-1--2-2-2-2-2-2-2-2--4-4-4-4-4-------6--|


Verse (I'm not sure what is actually played here but this is a bit like it)
|-----9-----------9----|    |-----9----------------------8---|
|----------------------|    |-----------------6--------------|
|---6---6-----------6--|    |---6---6-------5---5------5---5-|
|--8-----------8-------|    |--8----------6----------6-------|
|----------------------|    |--------------------------------|
|----------------------| x4 |--------------------------------|
                             This Part is parts that sound like some of it.
                             Maybe you might figure it out.

Everybody need to drive 
before we break out like hives 
Gotta learn to put this shit we call 
Pride to the side 

I ain't no player without you I'm not OJ 
Viva la vida 
Now she wanna give me Coldplay 

Ahh, Once you find you can't keep it 
You broke my heart into million tiny little pieces 
And now it's purge on you 
Never put hurt on you 
Talkin' to your girlfriends 
Tryna find dirt on you 

Damn, Is this what we have come to? 
When he was cheating 
I was the person you run to. 

Guess it's for another time 
This is what I've come to find 
Should've seen this coming but 
Stevie Wonder 
Love is blind 


Chorus

I know 
I'm finding it hard to breathe 
And I've been drowning in my own sleep 
I feel a hate crashing over me 
So rescue me 
(Ohh Ohh Ohh Ohhhhhhhhh) 
So rescue me 
|--------------------------------------------------------------|
|--------------------------------------------------------------|
|--------------------------------------------------------------|
|--8-8-8--4-4-4-4--6-6-6--3-3-3-3--4-4-4-4-4-4-4-4--6-6-6-6-6--|
|--8-8-8--4-4-4-4--6-6-6--3-3-3-3--4-4-4-4-4-4-4-4--6-6-6-6-6--|
|--6-6-6--2-2-2-2--4-4-4--1-1-1-1--2-2-2-2-2-2-2-2--4-4-4-4-4--| x3 then

|----------------------------------------------------------------------|
|----------------------------------------------------------------------|
|----------------------------------------------------------------------|
|--8-8-8--4-4-4-4--6-6-6--3-3-3-3--4-4-4-4-4-4-4-4--6-6-6-6-6-------8--|
|--8-8-8--4-4-4-4--6-6-6--3-3-3-3--4-4-4-4-4-4-4-4--6-6-6-6-6-------8--|
|--6-6-6--2-2-2-2--4-4-4--1-1-1-1--2-2-2-2-2-2-2-2--4-4-4-4-4-------6--|


Verse

She used to be the person of my dreams 
And now she's just a demon of my nightmares 
I know this shit ain't what it seems 
Hey, hey you ain't leaving, I'll be right here 

Shorty just rescue me 
I know you especially 
The way I always felt with you 
Thinking that true telepathy 

Like the age and their games 
We used to be blinding 
Who would have thought that when you left 
the right would become the wrong thing 

I know 
I'm finding it hard to breathe 
and I've been drowning in my own sleep 
I feel a hate crashing over me 
So rescue me 
|--------------------------------------------------------------|
|--------------------------------------------------------------|
|--------------------------------------------------------------|
|--8-8-8--4-4-4-4--6-6-6--3-3-3-3--4-4-4-4-4-4-4-4--6-6-6-6-6--|
|--8-8-8--4-4-4-4--6-6-6--3-3-3-3--4-4-4-4-4-4-4-4--6-6-6-6-6--|
|--6-6-6--2-2-2-2--4-4-4--1-1-1-1--2-2-2-2-2-2-2-2--4-4-4-4-4--| x3 then

|----------------------------------------------------------------------|
|----------------------------------------------------------------------|
|----------------------------------------------------------------------|
|--8-8-8--4-4-4-4--6-6-6--3-3-3-3--4-4-4-4-4-4-4-4--6-6-6-6-6-------8--|
|--8-8-8--4-4-4-4--6-6-6--3-3-3-3--4-4-4-4-4-4-4-4--6-6-6-6-6-------8--|
|--6-6-6--2-2-2-2--4-4-4--1-1-1-1--2-2-2-2-2-2-2-2--4-4-4-4-4-------6--|

|------9---|
|-----6-6--|
|----6-----|
|---8------|
|----------|
|----------| x7

So rescue me
And I've been drowning in my own sleep 
And I feel a hate crashing over me 
So rescue me 
(Ohh Ohh Ohh) 
So rescue me 
So rescue me
|--------------------------------------------------------------|
|--------------------------------------------------------------|
|--------------------------------------------------------------|
|--8-8-8--4-4-4-4--6-6-6--3-3-3-3--4-4-4-4-4-4-4-4--6-6-6-6-6--|
|--8-8-8--4-4-4-4--6-6-6--3-3-3-3--4-4-4-4-4-4-4-4--6-6-6-6-6--|
|--6-6-6--2-2-2-2--4-4-4--1-1-1-1--2-2-2-2-2-2-2-2--4-4-4-4-4--| x3 then

|----------------------------------------------------------------------|
|----------------------------------------------------------------------|
|----------------------------------------------------------------------|
|--8-8-8--4-4-4-4--6-6-6--3-3-3-3--4-4-4-4-4-4-4-4--6-6-6-6-6-------8--|
|--8-8-8--4-4-4-4--6-6-6--3-3-3-3--4-4-4-4-4-4-4-4--6-6-6-6-6-------8--|
|--6-6-6--2-2-2-2--4-4-4--1-1-1-1--2-2-2-2-2-2-2-2--4-4-4-4-4-------6--|


-Also during this guitar 2 tremlo picks on the 1st string at fret 18 then to 20- 

Tap to rate this tab
 
# A B C D E F G H I J K L M N O P Q R S T U V W X Y Z