Song name
# A B C D E F G H I J K L M N O P Q R S T U V W X Y Z

You Me At Six - Playing The Blame Game tab

Artist: You Me At Six/YMAS
Song: Playing The Blame Game
Tabber: Matty
Tuning: Standard

b- Bend
/- Slide
x-Block
 
E|--7----10------9------7-----------------------------|
B|--7-------7------7----7-----------------------------|
G|--7---------7------7--7-------------7---------------|
D|--------------------------------5/9----9b-----------|
A|----------------------------------------------------|
E|----------------------------------------------------|

E|--7----10------9------7-----------------------------|
B|--7-------7------7----7-----------------------------|
G|--7---------7------7--7---------5/7b----------------|
D|-----------------------------------------5/9b-------|      
A|----------------------------------------------------|
E|----------------------------------------------------|
 
E|--7----10------9------7-----------------------------|
B|--7-------7------7----7-----------------------------|
G|--7---------7------7--7------------4444--4444-------|
D|-----------------------------------4444--4444-------|      x2
A|-----------------------------------2222--2222-------|
E|----------------------------------------------------|

Chorus
E|----------------------------------------------|
B|----------------------------------------------|
G|---4-----7------------------------------------|
D|---4-x4--7-x4--5-----7------------------------|    x2
A|---2-----5-----5-x4--7-x4---------------------|
E|---------------3-----5------------------------|

2nd Verse
E|--7----10------9------7-----------------------------|
B|--7-------7------7----7-----------------------------|
G|--7---------7------7--7-----------------------------|
D|----------------------------------------------------|      
A|----------------------------------------------------|
E|----------------------------------------------------|

E|--7----10------9------7-----------------------------|
B|--7-------7------7----7-----------------------------|
G|--7---------7------7--7-----------------------------|  x2
D|----------------------------------------------------|      
A|----------------------------------------------------|
E|----------------------------------------------------|

E|----------------------------------------------------------------|
B|----------------------------------------------------------------|
G|-------------777------------------------------------------------|
D|----999-xxxx—777-77777-555-xxxx--22222222-----------------------| x2   
A|----999-xxxx—555-77777-555-xxxx--22222222-----------------------|
E|----777-xxxx-----55555-333-xxxx--00000000-----------------------|

Pre Chorus

E|----------------------------------------------|
B|----------------------------------------------|
G|---4----6---77777-----------------------------|
D|---4----6---77777-----------------------------|    
A|---2----4---55555-----------------------------|
E|----------------------------------------------|






Chorus
E|----------------------------------------------|
B|----------------------------------------------|
G|---4-----7------------------------------------|
D|---4-x4--7-x4--5-----7------------------------|    x4
A|---2-----5-----5-x4--7-x4---------------------|
E|---------------3-----5------------------------|

E|-------------------------------|
B|-------------------------------|
G|-------------------------------|
D|----5-5-5-5-5-5-5-5------------| x2  
A|----5—5-5-5-5-5-5-5------------|
E|----3-3-3-3-3-3-3-3------------|

E|------------------|
B|------------------|
G|--------7---------|
D|----999-7---x4----|
A|----999-5---------|
E|----777-----------|
 
E|---------------------------------------|
B|---------------------------------------|
G|---------------------------------------|
D|----5-5-5-5-5-5-5-5--7-7-7-7-7-7-7-7---| x2    
A|----5—5-5-5-5-5-5-5--7-7-7-7-7-7-7-7---|
E|----3-3-3-3-3-3-3-3--5-5-5-5-5-5-5-5---| 
                                                             Play these two twice 
E|------------------|
B|------------------|
G|--------7---------|
D|----999-7---x4----|
A|----999-5---------|
E|----777-----------|
 
Chorus
E|----------------------------|
B|----------------------------|
G|---4-----7------------------|
D|---4-x4--7-x4--5-----7------| x4
A|---2-----5-----5-x4--7-x4---|
E|---------------3-----5------|

Chorus
E|---------------------------|
B|---------------------------|
G|-------------7-4-----------|
D|-55-77-55-77-7-4-----------|
A|-55-77-55-77-5-2-----------|
E|-33-55-33-55---------------|
Tap to rate this tab
 
# A B C D E F G H I J K L M N O P Q R S T U V W X Y Z