Song name
# A B C D E F G H I J K L M N O P Q R S T U V W X Y Z

You Me At Six - Take Your Breath Away tab

I think that itīs 99% correct but if you have any suggetions write me :).

You can also visit my Youtube Channel and watch my videos :)

http://www.youtube.com/user/RGioD?feature=mhum

Tuning Standard: E A D G B e


-------------------------------------------------------------------------------

Intro:

E|----------------------------------------------------------------------------|
A|13--10---13-10-10-10-10-10-13---13-10-10-10-10-10-13---13-10-10-10-10-10-13-|
D|15--12---15-12-12-12-12-12-15---15-12-12-12-12-12-15---15-12-12-12-12-12-15-|
G|15--12---15-12-12-12-12-12-15---15-12-12-12-12-12-15---15-12-12-12-12-12-15-|
B|----------------------------------------------------------------------------|
e|----------------------------------------------------------------------------|



E|----------------------|
A|-13-10-10-10-13-13-13-|
D|-15-12-12-12-15-15-15-|
G|-15-12-12-12-15-15-15-|
B|----------------------|
e|----------------------|



E|----------------------------------------------------------------------------|
A|13--10---13-10-10-10-10-10-13---13-10-10-10-10-10-13---13-10-10-10-10-10-13-|
D|15--12---15-12-12-12-12-12-15---15-12-12-12-12-12-15---15-12-12-12-12-12-15-|
G|15--12---15-12-12-12-12-12-15---15-12-12-12-12-12-15---15-12-12-12-12-12-15-|
B|----------------------------------------------------------------------------|
e|----------------------------------------------------------------------------|



E|----------------------------------|
A|-13-10-10-10-13-13-13~------------|
D|-15-12-12-12-15-15-15~-12~-10~-8~-|
G|-15-12-12-12-15-15-15~------------|
B|----------------------------------|
e|----------------------------------|

Pre-chours:

E|--------------------------------------------------------------------|
A|-6-6-6-6-6-6-6-6---10-10-10-10-10-10-10-10---8--8--8--8--8--8--8--8-|
D|-8-8-8-8-8-8-8-8---12-12-12-12-12-12-12-12---10-10-10-10-10-10-10-10|
G|--------------------------------------------------------------------|
B|--------------------------------------------------------------------|
e|--------------------------------------------------------------------|
pm. . . . . . . .   .  .  .  .  .  .  .  .    .  .  .  .  .  .  .  .  


E|---------------------------------------------------|
A|-8--8--8--8--8--8--8--8----8--8--8--8--8--8--8--8--|
D|-10-10-10-10-10-10-10-10---10-10-10-10-10-10-10-10-| 2x
G|---------------------------------------------------|
B|---------------------------------------------------|
e|---------------------------------------------------|
pm.  .  .  .  .  .  .  .    .  .  .  .


E|---------------------------------------------|
A|---------------------------------------------|
D|------------------------10-10-10-10-12-12-12-| 4x
G|-10-10-10-10-12-12-12------------------------|
B|---------------------------------------------|
e|---------------------------------------------|

Bridge:

E|-----------------------------------|
A|-5-5-5-5-5-5-5-5---6-6-6-6-6-6-6-6-|
D|-7-7-7-7-7-7-7-7---8-8-8-8-8-8-8-8-|
G|-----------------------------------|
B|-----------------------------------|
e|-----------------------------------|
pm. . . . . . . .   . . . . . . . .

Chours:

E|-----------------------------------------------------------------------------|
A|-10-10-10-10-10-10-10-10---8--8--8--8--8--8--8--8----12-12-12-12-12-12-12-12-|
D|-12-12-12-12-12-12-12-12---10-10-10-10-10-10-10-10---14-14-14-14-14-14-14-14-|
G|-12-12-12-12-12-12-12-12---10-10-10-10-10-10-10-10---14-14-14-14-14-14-14-14-|
B|-----------------------------------------------------------------------------|
e|-----------------------------------------------------------------------------|



E|---------------------------|
A|-13-13-13-13-13-13-13-13---|
D|-15-15-15-15-15-15-15-15---|
G|-15-15-15-15-15-15-15-15---|
B|---------------------------|
e|---------------------------|



E|-----------------------------------------------------------------------------------|
A|-10-10-10-10-10-10-10-10---8--8--8--8--8--8--8--8----12-12-12-12-12-12-12-12---8~--|
D|-12-12-12-12-12-12-12-12---10-10-10-10-10-10-10-10---14-14-14-14-14-14-14-14---10~-|
G|-12-12-12-12-12-12-12-12---10-10-10-10-10-10-10-10---14-14-14-14-14-14-14-14---10~-|
B|-----------------------------------------------------------------------------------|
e|-----------------------------------------------------------------------------------|



E|----|
A|----|
D|-8~-|
G|----|
B|----|
e|----|

Pre-chours:

E|---------------------------------------------|
A|---------------------------------------------|
D|------------------------10-10-10-10-12-12-12-| 4x
G|-10-10-10-10-12-12-12------------------------|
B|---------------------------------------------|
e|---------------------------------------------|



E|----------------------------------------------|
A|----------------------------------------------|
D|----15----------15----------15----------15----| 3x
G|-12----12-15-12----12-12-12----12-15-12----12-|
B|----------------------------------------------|
e|----------------------------------------------|

Bridge:

E|-----------------------------------------|
A|-5-5-5-5-5-5-5-5---6-6-6-6---8--8--8--8--|
D|-7-7-7-7-7-7-7-7---8-8-8-8---10-10-10-10-|
G|-----------------------------------------|
B|-----------------------------------------|
e|-----------------------------------------|
pm. . . . . . . .  

Chours:

E|-----------------------------------------------------------------------------|
A|-10-10-10-10-10-10-10-10---8--8--8--8--8--8--8--8----12-12-12-12-12-12-12-12-|
D|-12-12-12-12-12-12-12-12---10-10-10-10-10-10-10-10---14-14-14-14-14-14-14-14-|
G|-12-12-12-12-12-12-12-12---10-10-10-10-10-10-10-10---14-14-14-14-14-14-14-14-|
B|-----------------------------------------------------------------------------|
e|-----------------------------------------------------------------------------|



E|---------------------------|
A|-13-13-13-13-13-13-13-13---|
D|-15-15-15-15-15-15-15-15---|
G|-15-15-15-15-15-15-15-15---|
B|---------------------------|
e|---------------------------|



E|-----------------------------------------------------------------------------------|
A|-10-10-10-10-10-10-10-10---8--8--8--8--8--8--8--8----12-12-12-12-12-12-12-12---8~--|
D|-12-12-12-12-12-12-12-12---10-10-10-10-10-10-10-10---14-14-14-14-14-14-14-14---10~-|
G|-12-12-12-12-12-12-12-12---10-10-10-10-10-10-10-10---14-14-14-14-14-14-14-14---10~-|
B|-----------------------------------------------------------------------------------|
e|-----------------------------------------------------------------------------------|

Solo:

E|--------------------------------------------------|
A|--------------------------------------------------|
D|--------------------------------------------------| 4x
G|-12-12----12-12-----12-12----12-12----12-12-------|
B|-------11--------13-------10-------10-------10h11-|
e|--------------------------------------------------|



E|--------------------------------------------------------------------------------|
A|--------------------------------------------------------------------------------|
D|--------------------------------------------------------------------------------|
G|-12-12----12-12----12-12----12-12----12-12-12-----------------------------------|
B|-------10-------11-------13-------11------------14b-13-11---12-10-12---12-10-12-|
e|--------------------------------------------------------------------------------|



E|------------------------------------------------------------------|
A|------------------------------------------------------------------|
D|------------------------------------------------------------------|
G|-12-12----12-12----12-12----12-12----12-12-12---------------------|
B|-------10-------11-------13-------11------------10-18-19b-22b-19b-|
e|------------------------------------------------------------------|



E|-----------------------------------|
A|-----------------------------------|
D|-----------------------------------|
G|-----------------------------------|
B|-10-11-15-13-11---10b-11-13-11-10b-|
e|-----------------------------------|



E|----------------------------------------------|
A|----------------------------------------------|
D|----------------------------------------------|
G|-12-12----12-12----12-12----12-12----12-12-12-|
B|-------10-------11-------13-------11----------|
e|----------------------------------------------|



E|----------------------------------------------------|
A|----------------------------------------------------|
D|----------------------------------------------------|
G|----------------------------------------------------|
B|-14b-14b-14b-14b-14b-13-11---14b-14b-14b-14b-14b~~~-|
e|----------------------------------------------------|



E|---------------------------------------------------------------------|
A|-10-10-10-10-10-10-10-10---12-12-12-12-12-12-12-12---6-6-6-6-6-6-6-6-|
D|-12-12-12-12-12-12-12-12---14-14-14-14-14-14-14-14---8-8-8-8-8-8-8-8-|
G|-12-12-12-12-12-12-12-12---14-14-14-14-14-14-14-14---8-8-8-8-8-8-8-8-|
B|---------------------------------------------------------------------|
e|---------------------------------------------------------------------|
pm.  .  .  .  .  .  .  .    .  .  .  .  .  .  .  .    . . . . . . . .


E|-------------------------|      |-----|
A|-8--8--8--8--8--8--8--8--|      |-8~--|
D|-10-10-10-10-10-10-10-10-| 3x   |-10~-|
G|-10-10-10-10-10-10-10-10-|      |-10~-|
B|-------------------------|      |-----|
e|-------------------------|      |-----|
pm.  .  .  .  .  .  .  .

Chours:


E|-----------------------------------------------------------------------------|
A|-10-10-10-10-10-10-10-10---8--8--8--8--8--8--8--8----12-12-12-12-12-12-12-12-|
D|-12-12-12-12-12-12-12-12---10-10-10-10-10-10-10-10---14-14-14-14-14-14-14-14-|
G|-12-12-12-12-12-12-12-12---10-10-10-10-10-10-10-10---14-14-14-14-14-14-14-14-|
B|-----------------------------------------------------------------------------|
e|-----------------------------------------------------------------------------|



E|---------------------------|
A|-13-13-13-13-13-13-13-13---|
D|-15-15-15-15-15-15-15-15---|
G|-15-15-15-15-15-15-15-15---|
B|---------------------------|
e|---------------------------|



E|-----------------------------------------------------------------------------------|
A|-10-10-10-10-10-10-10-10---8--8--8--8--8--8--8--8----12-12-12-12-12-12-12-12---8~--|
D|-12-12-12-12-12-12-12-12---10-10-10-10-10-10-10-10---14-14-14-14-14-14-14-14---10~-|
G|-12-12-12-12-12-12-12-12---10-10-10-10-10-10-10-10---14-14-14-14-14-14-14-14---10~-|
B|-----------------------------------------------------------------------------------|
e|-----------------------------------------------------------------------------------|


E|-------------------------------------------------|
A|-------------------------------------------------|
D|-------------------------------------------------| 4x
G|-12-12----12-12----12-12----12-12----12-12-------|
B|-------11-------13-------10-------10-------10h11-|
e|-------------------------------------------------|



E|-----------------------------------|
A|-----------------------------------|
D|-----------------------------------|
G|-----------------------------10-12-|
B|-14b-14b-14b-14b-14b-13-11---------|
e|-----------------------------------|


b=bend
h=hammer on
.=palm muted
Tap to rate this tab
 
# A B C D E F G H I J K L M N O P Q R S T U V W X Y Z