You Me At Six - Take Your Breath Away tab

Artist: You Me At Six
Song: "Take Your Breath Away"
From the album Hold Me Down
Year: 2010

Guitar tab by Clarfs - email; josh-41@hotmail.co.uk

I've only tabbed the rhythm guitar for this song.

Tuning = Drop D (D, A, D, G, B, e)

Intro
e|---------------------------------------------------------------------------|
B|---------------------------------------------------------------------------|
G|---3---5---------------------------------------------------3--3--3-3-3-3---|
D|---3---5---1--1--1-1-1-1---3--3--3-3-3-3---5--5--5-5-5-5---3--3--3-3-3-3---|
A|---1---3---1--1--1-1-1-1---3--3--3-3-3-3---5--5--5-5-5-5---1--1--1-1-1-1---|
D|-----------1--1--1-1-1-1---3--3--3-3-3-3---5--5--5-5-5-5-------------------|

e|-----------------------------------------------------------------------|
B|-----------------------------------------------------------------------|
G|---------------------------------------------------3--3--3-3-3-3-------|
D|---1--1--1-1-1-1---3--3--3-3-3-3---5--5--5-5-5-5---3--3--3-3-3-3---1---|
A|---1--1--1-1-1-1---3--3--3-3-3-3---5--5--5-5-5-5---1--1--1-1-1-1---1---|
D|---1--1--1-1-1-1---3--3--3-3-3-3---5--5--5-5-5-5-------------------1---|

Verse 1 
e|----------------------------------------------------------------|
B|----------------------------------------------------------------|
G|----------------------------------------------------------------|
D|---1-1-1-1-1-1---5-5-5-5-5-5---3-3-3-3-3-3---3-3-3-3--5--3--5---|
A|---1-1-1-1-1-1---5-5-5-5-5-5---3-3-3-3-3-3---3-3-3-3--5--3--5---|
D|---1-1-1-1-1-1---5-5-5-5-5-5---3-3-3-3-3-3---3-3-3-3--5--3--5---| x 4
  PM * * * * * *   * * * * * *   * * * * * *   * * * *  *  *  * 

e|-------------------------------------|
B|-------------------------------------|
G|-------------------------------------|
D|---1-1-1-1-1-1-1-1-3-3-3-3-3-3-3-3---|
A|---1-1-1-1-1-1-1-1-3-3-3-3-3-3-3-3---|
D|---1-1-1-1-1-1-1-1-3-3-3-3-3-3-3-3---|
  PM * * * * * * * * * * * * * * * * 

Chorus
e|-------------------|
B|-------------------|
G|-------3-----------|
D|---5---3---1---3---|
A|---5---1---1---3---|
D|---5-------1---3---| x2

Verse 2

Part 1 (same as verse 1)

Part 2
e|-------------------------------------|
B|-------------------------------------|
G|-----------3---5---------------------|
D|---1---5---3---5---3-3-3-3-3-3-3-3---|
A|---1---5---1---3---3-3-3-3-3-3-3-3---|
D|---1---5-----------3-3-3-3-3-3-3-3---|
                     * * * * * * * *

Chorus x2

Bridge
e|---------------------------------------------------------------------------|
B|---------------------------------------------------------------------------|
G|---------------------------------------------------------------------------|
D|---1-1-1-1-1-1-1-1-3-3-3-3-3-3-3-3---5--3--5---5--3--5---5-5-5-5-5-5-5-5---|
A|---1-1-1-1-1-1-1-1-3-3-3-3-3-3-3-3---5--3--5---5--3--5---5-5-5-5-5-5-5-5---|
D|---1-1-1-1-1-1-1-1-3-3-3-3-3-3-3-3---5--3--5---5--3--5---5-5-5-5-5-5-5-5---| x 2

e|-------------------------------------------------------------------------------------|
B|-------------------------------------------------------------------------------------|
G|-------------------------------------5----5----5----5----5-3----5----5----5----5-----|
D|---1-1-1-1-1-1-1-1-3-3-3-3-3-3-3-3---5-5--5-5--5-5--5-5--5-3-5--5-5--5-5--5-5--5-5---|
A|---1-1-1-1-1-1-1-1-3-3-3-3-3-3-3-3---3-5--3-5--3-5--3-5--3-1-5--3-5--3-5--3-5--3-5---|
D|---1-1-1-1-1-1-1-1-3-3-3-3-3-3-3-3-----5----5----5----5------5----5----5----5----5---|

e|---------------------------------------------------------------------|
B|---------------------------------------------------------------------|
G|-------------------3-3-3-3-3-3-3-3-----------------------------------|
D|---5-5-5-5-5-5-5-5-3-3-3-3-3-3-3-3-1-1-1-1-1-1-1-1-3-3-3-3-3-3-3-3---|
A|---5-5-5-5-5-5-5-5-1-1-1-1-1-1-1-1-1-1-1-1-1-1-1-1-3-3-3-3-3-3-3-3---|
D|---5-5-5-5-5-5-5-5-----------------1-1-1-1-1-1-1-1-3-3-3-3-3-3-3-3---| x4

Chours x2

End
e|--------------------------------------|
B|--------------------------------------|
G|---5----5----5----5----5-3------------|
D|---5-5--5-5--5-5--5-5--5-3-5--3---5---|
A|---3-5--3-5--3-5--3-5--3-1-5--3---5---|
D|-----5----5----5----5------5--3---5---|
Tap to rate this tab
 
# A B C D E F G H I J K L M N O P Q R S T U V W X Y Z