You Me At Six - Safer To Hate Her tab

First ever tab...tried to learn this song but there were no decent tabs so decided 
to do it myself :D


Intro:

e|--------------------------------------------------------------|
B|-----------------------------------------------------8--7-----|
G|-----------------------------------------------------------7--|
D|--2--2--5--4-----0--0--4--5--7--0--0--7--5--4--5--5-----------|
A|--2--2--------5--0--0-----------0--0-----------5--5-----------|
D|--------------------------------------------------------------|

e|--------------------------------------------------------------|
B|-----------7--8---------8--7----------------------------------|
G|--------7---------------------7-------------------7-7-7-7-----|
D|--0--0------------0--0------------2--2--5--4--0---7-7-7-7-----|
A|--0--0------------0--0------------2--2------------5-5-5-5-----|
D|--------------------------------------------------------------|

e|--------------------------------------------------------------|
B|--------------------------------------------------------------|
G|--1414141414141414-12121212-11111111-99-99-9-99-99-111111-----|
D|--x-x-x-x-x-x-x-x--x-x-x-x--x-x-x-x--xx-xx-x-xx-xx-x-x-x------|
A|--1212121212121212-10101010-9-9-9-9--77-77-7-77-77-9-9-9------|
D|--------------------------------------------------------------|

e|--------------------------------------------------------------|
B|--------------------------------------------------------------|
G|--1414141414141414-12121212-11111111-99-99-9-99-99-1111-7-----|
D|--x-x-x-x-x-x-x-x--x-x-x-x---x-x-x-x-xx-xx-x-xx-xx-x-x--x-----|
A|--1212121212121212-10101010--9-9-9-9-77-77-7-77-77-9-9--5-----|
D|--------------------------------------------------------------|

Verse 1:

e|----------------------|
B|------------10--------|
G|--9----7----11----4---| REPEAT 
D|--7----0----11----2---|   x3
A|--7----0----9-----2---|
D|--7----0----------2---|

Chorus:

E = ELEVENTH FRET

e|----------------------------------------------------|
B|--------------------------------------------------- |
G|--77777777EEEEEEEE999999999999EEEE------------------| REPEAT
D|--55555555999999997777777777779999------------------|   x2
A|--55555555999999997777777777779999------------------|
D|--55555555999999997777777777779999------------------|

Verse 2:

e|----------------------|
B|------------10--------|
G|--9----7----11----4---| REPEAT 
D|--7----0----11----2---|   x2
A|--7----0----9-----2---|
D|--7----0----------2---|

Chorus:

e|----------------------------------------------------|
B|--------------------------------------------------- |
G|--77777777EEEEEEEE999999999999EEEE------------------| REPEAT
D|--55555555999999997777777777779999------------------|   x2
A|--55555555999999997777777777779999------------------|
D|--55555555999999997777777777779999------------------|

Bridge:

Rhythm Guitar:
e-|-----------------------------|
B-|-----------------------------|
G-|-----------------------------| REPEAT
D-|-5-5-5--9-9-9--5-5-5-9-5-4-0-|   x4
A-|-5-5-5--9-9-9--5-5-5-9-5-4-0-|
D-|-5-5-5--9-9-9--5-5-5-9-5-4-0-|

or.....

Lead Guitar:
e-|----------------------------------------|
B-|-------15-------15--------15------------|
G-|-11-12----11-12-----11-12-----12-11-9-7-| REPEAT
D-|----------------------------------------|   x4
A-|----------------------------------------|
D-|----------------------------------------|

(Play rhythm or lead guitar in the bridge depending on your ability and style.) 

e-|-----------------------------------------------|
B-|-----------------------------------------------|
G-|-----------------------------------------------|
D-|--77777777--555-555--999-999--77-77---77-77-99-|
A-|--77777777--555-555--999-999--77-77---77-77-99-|
D-|--77777777--555-555--999-999--77-77---77-77-99-|
    |PM......|

Chorus:

e|----------------------------------------------------|
B|--------------------------------------------------- |
G|--77777777EEEEEEEE999999999999EEEE------------------| REPEAT
D|--55555555999999997777777777779999------------------|   x3
A|--55555555999999997777777777779999------------------|
D|--55555555999999997777777777779999------------------|

(On this last chorus, adapt rhythms to make it sound more 'stabby' and impressive :D )

Outro:

e|--------------------------------------------------------------|
B|-----------------------------------------------------8--7-----|
G|-----------------------------------------------------------7--|
D|--2--2--5--4-----0--0--4--5--7--0--0--7--5--4--5--5-----------|
A|--2--2--------5--0--0-----------0--0-----------5--5-----------|
D|--------------------------------------------------------------|

e|--------------------------------------------------------------|
B|-----------7--8---------8--7----------------------------------|
G|--------7---------------------7-------------------7-7-7-7-----|
D|--0--0------------0--0------------2--2--5--4--0---7-7-7-7-----|
A|--0--0------------0--0------------2--2------------5-5-5-5-----|
D|--------------------------------------------------------------|


Please give feedback on how to improve :) 
Tap to rate this tab
 
# A B C D E F G H I J K L M N O P Q R S T U V W X Y Z