Song name
# A B C D E F G H I J K L M N O P Q R S T U V W X Y Z

You Me At Six - Playing The Blame Game tab

this is every part of playing the blame game including lead guitar its pretty simple i 
will do bass aswell as there is no tab for the bass anywere for this song.

Lead guitar for 1st verse:
E-7-10-----9------7-------------|
B-7----7-----7----7------7------|
G-7------7-----7--7---7/9--9----|
D-------------------------------|
A-------------------------------|
E-------------------------------|

E-7-10-----9------7------------|
B-7----7-----7----7------------|
G-7------7-----7--7----5/7-----|
D--------------------------7/9-|
A------------------------------|
E------------------------------|

rhythme comes in on "is this all in vein"

E---------------------------------|
B---------------------------------|
G-4-4-4-4-7-7--------4-4-4--4-4-4-|
D-4-4-4-4-7-7-5-5-x2-4-4-4--4-4-4-|
A-2-2-2-2-5-5-5-5----2-2-2--2-2-2-|
E-------------3-3-----------------|

chorus

rhythme:
E--------------------------------------------------------------------|
B--------------------------------------------------------------------|
G--4-4-4-4-7-7-7-7-------------------4-4-4-4-7-7-7-7-----------------|
D--4-4-4-4-7-7-7-7-5-5-5-5-7-7-7-7---4-4-4-4-7-7-7-7-5-5-5-5-2-2-2-2-|
A--2-2-2-2-5-5-5-5-5-5-5-5-7-7-7-7---2-2-2-2-5-5-5-5-5-5-5-5-2-2-2-2-|
E------------------3-3-3-3-5-5-5-5-------------------3-3-3-3-0-0-0-0-|
as many times as neccesary

lead:play around these three notes
E-10----12-10----12----------|
B----10-------10----10-------|
G----------------------------|
D----------------------------|
A----------------------------|
E----------------------------|

the next verse is pretty much the same but the lead part is shortened you will easily 
find what notes to drop when you listen to the record.

"try this one for size"
E-----------------------------------------|
B-----------------------------------------|
G-----------------------------------------|
D--9-7-9-x-x-x-x-7-7-7-7--5-5-5-5-2-2-2-2-|
A--9-7-9-x-x-x-x-7-7-7-7--5-5-5-5-2-2-2-2-|
E--7-5-7-x-x-x-x-5-5-5-5--3-3-3-3-0-0-0-0-|
pre chorus
E---------|
B---------|
G-4-6-7-9-|
D-4-6-7-9-|
A-2-4-5-7-|
E---------|this is the 1 bit im not sure about the guitar doesnt actually play this but 
its an alternative because i cant figure out exactly what this part actually is clearly 
so this just follows the lead guitar

lead:
E----------------|
B----------------|
G-4-6-7-9--------|
D----------------|
A----------------|
E----------------|

dramtic violin bit

rhythme
E---------------------------------- E--------------------------|
B---------------------------------- B--------------------------|
G---------------------------------- G--------7-----------------|
D-5-5-5-5-5-5-5-5-2-2-2-2-2-2-2-2-- D-9-7-9--7--9-7-9-7--------|
A-5-5-5-5-5-5-5-5-2-2-2-2-2-2-2-2-- A-9-7-9--5--9-7-9-7--------|
E-3-3-3-3-3-3-3-3-0-0-0-0-0-0-0-0-- E-7-5-7-----7-5-7-5----X2--|

violin bit transposed for guitar played on high e string
E-10-9-10-9-10-9-10-9-X2
for the next bit the rythme remains the same
"You hold me down"
E----------------------|
B----------------------|
G--4-6-7----6-7-9------|
D----------------------|
A----------------------|
E----------------------|

the last bit is
E---------------------------|
B---------------------------|
G--4-4-4-4-4-4--------------|
D--4-4-4-4-4-4-7-5/0--------|
A--2-2-2-2-2-2-7-5/0--------|
E--------------5-3/0--------|

there it is all the parts except from the funny bit that i mentioned are there i think 
there pretty accurate aswell but i will accept corrections if you have them thanks
Tap to rate this tab
# A B C D E F G H I J K L M N O P Q R S T U V W X Y Z