Song name
# A B C D E F G H I J K L M N O P Q R S T U V W X Y Z

You Me At Six - Loverboy tab

You Me At Six - Loverboy (NEW)

Intro/Verse:

E||-----------------|-----------------|-----------------|-----------------|
B||-----------------|-----------------|-----------------|-----------------|
G||-----------------|-----------------|-----------------|-----------------| 
D||-------2-3-22----|0-0--------------|-----------------|-----------------|
A||--3-5------------|-----------------|-----------------|-----------------|
D||-----------------|------0-0--------|-----------------|-----------------|

Chorus:

E||-----------------|-----------------|-----------------|-----------------|
B||-----------------|-----------------|-----------------|-----------------|
G||---3-3-3--33-----|----5-5-5--55----|--7-7-7--77------|--7-7-7--77------|
D||---3-3-3--33-----|----5-5-5--55----|--7-7-7--77------|--7-7-7--77------|
A||---1-1-1--11-----|----3-3-3--33----|--5-5-5--55------|--5-5-5--55------|
D||-----------------|-----------------|-----------------|-----------------|

E||-----------------|-----------------|-----------------|-----------------|
B||-----------------|-----------------|-----------------|-----------------|
G||----3-3-3--33----|-----------------|--5-5-5--55-5----|-----------------|
D||----3-3-3--33----|---3-3-3--33-----|--5-5-5--55-5----|-----------------|
A||----1-1-1--11----|---3-3-3--33-----|--3-3-3--33-3----|-----------------|
D||-----------------|---3-3-3--33-----|-----------------|-----------------|

Pre-Solo:

E||-----------------|-----------------|-----------------|-----------------| 
B||-----------------|-----------------|-----------------|-----------------|
G||--77777----------|---55555---------|---33333---------|-----------------|
D||--77777----------|---55555---------|---33333---------|---33333---------|
A||--55555----------|---33333---------|---11111---------|---33333---------|
D||-----------------|-----------------|-----------------|---33333---------| 

Solo:

E||-----------------|-----------------|-----------------|-----------------|
B||-----------------|---6h8---6h8-----|--6h8---9b(10)---|-9-7-------6-----|
G||----5--7b(8)-----|--------7------7-|------7----------|-----7777--------|
D||--7--7-----------|-----------------|-----------------|-----------------|
A||-----------------|-----------------|-----------------|-----------------|
D||-----------------|-----------------|-----------------|-----------------| 

E||1010101010101010-|-88888888--------|16b(17)-16b(17)--|16b(17)-16b(17)--| 
B||-----------------|-----------------|-----------------|-----------------|
G||-----------------|-----------------|-----------------|-----------------|
D||-----------------|-----------------|-----------------|-----------------|
A||-----------------|-----------------|-----------------|-----------------|
D||-----------------|-----------------|-----------------|-----------------|

E||--10-10~---------|-----------------|-----------------|-----------------|
B||-----------------|-----------------|-----------------|-----------------|
G||-----------------|-----------------|-----------------|-----------------| 
D||-----------------|-----------------|-----------------|-----------------|
A||-----------------|-----------------|-----------------|-----------------|
D||-----------------|-----------------|-----------------|-----------------|

Pre-chorus:

E||-----------------|-----------------|-----------------|-----------------|
B||-----------------|-----------------|-----------------|-----------------|
G||--10-10-10-------|-10-10-10-10-----|-----------------|-----------------| 
D||---X--X--X-------|- X--X--X--X-----|-----------------|-----------------|
A||---8--8--8-------|--8--8--8--8-----|-----------------|-----------------|
D||-----------------|-----------------|-----------------|-----------------|


Intro/Verse X12
Chorus X1
Intro/Verse X5
Chorus X2
Pre-solo X2
Solo
Pre-chorus
Chorus X2
Intro/Verse X1

Thanks all, this is my first tab, I dont think most of it is accurate, lets hope 
it is, but I learned the song by ear and thought I'd make this tab too help 
everyone else, cheers!!

By Annie Wickson
Tap to rate this tab
 
# A B C D E F G H I J K L M N O P Q R S T U V W X Y Z