Song name
# A B C D E F G H I J K L M N O P Q R S T U V W X Y Z

You Me At Six - This Is The Frist Thing tab

You me at six - This is the first thing
Album: Sinners never Sleep 
Tuning Drop D (D A D G B e)


Watch my video :) http://www.youtube.com/watch?v=5f8KBXhSXDA&feature=channel_video_title   




Intro: 3x


e|------------------------------------------------|
B|-----------12-------------12-------------12-----|
G|-----------9-----9--9--9--9--------------9------|
D|-11-11-11-----------------------9--9--9---------|
A|------------------------------------------------|
E|------------------------------------------------|

Chours: 2x

   8x   8x   8x   8x
e|---------------------|
B|---------------------|
G|-6----6---------4----|
D|-6----6----2----4----|
A|-4----0----2----2----|
E|-----------0---------|

 
                      3x

e|------------------------------------------------|
B|-----------12-------------12-------------12-----|
G|-----------9-----9--9--9--9--------------9------|
D|-11-11-11-----------------------9--9--9---------|
A|------------------------------------------------|
E|------------------------------------------------|

Chours: 2x

   8x   8x   8x   8x
e|---------------------|
B|---------------------|
G|-6----6---------4----|
D|-6----6----2----4----|
A|-4----0----2----2----|
E|-----------0---------|


                       3x

e|------------------------------------------------|
B|-----------12-------------12-------------12-----|
G|-----------9-----9--9--9--9--------------9------|
D|-11-11-11-----------------------9--9--9---------|
A|------------------------------------------------|
E|------------------------------------------------|

Chours: 1x

   2x   1x   8x   8x
e|---------------------|
B|---------------------|
G|-6----6---------4----|
D|-6----6----2----4----|
A|-4----0----2----2----|
E|-----------0---------|

Chors: 4x

   8x   8x   8x   8x
e|---------------------|
B|---------------------|
G|-6----6---------4----|
D|-6----6----2----4----|
A|-4----0----2----2----|
E|-----------0---------|

Ourto:


e|--------------|
B|-----------12-|
G|-----------9--|
D|-11-11-11-----|
A|--------------|
E|--------------|
Tap to rate this tab
# A B C D E F G H I J K L M N O P Q R S T U V W X Y Z