Song name
# A B C D E F G H I J K L M N O P Q R S T U V W X Y Z

You Me At Six - Loverboy tab

You Me At Six
Loverboy

Guitar 1 - DROP D (Max)
Guitar 2 - Drop D (Chris)

I have included everything for this tab. One very important thing to 
know is that I don't think their are ANY 8th notes in this track.
Most rhythems are TRIPLETS! So three notes per beat. Also this track is swung!
Remember that for the solo.
                        
                        1     2     3     4  
Just remember count.. 1-2-3 1-2-3 1-2-3 1-2-3..

Any questions just leave a comment! 
Enjoy and please rate!! :D x


GUITAR 1

###Intro/Verse###
[00:15 - 00:57]
(the very last time the bass place this riff in the verse, 
the guitar doesn't play it, just hold the D until the chorus comes)

|------------------------|
|------------------------|
|-----------------------2|
|------3--\2p0----0-----0|
|0h3h5----------3----0--0|
|--------------------0--0|
                     .
 
###Chorus###
[00:57 - 01:13]

|-------------------------------|--------------------------------------------------|
|-------------------------------|--------------------------------------------------|
|3-3-3-3-5-5-5-5-7-7-7-7-7-7-7-7|3-3-3-3-5-5-5-5-5-5-5-5-5------------------------2|
|3-3-3-3-5-5-5-5-7-7-7-7-7-7-7-7|3-3-3-3-3-3-3-3-5-5-5-5-5-------3--\2p0----0-----0|
|1-1-1-1-3-3-3-3-0-0-0-0-0-0-0-0|1-1-1-1-3-3-3-3-3-3-3-3-3-0h3h5----------3----0--0|
|----------------0-0-0-0-0-0-0-0|--------3-3-3-3-------------------------------0--0|

###Verse 2###
[01:13 - 01:28]

(The guitar does NOT play the riff here, instead on every other bar, 
on the 3, play this, you should only play this 3 times)
|-----------------|
|10-10-10-10-10-10|
|10-10-10-10-10-10|
|-----------------|
|-----------------|
|-----------------|

###Chorus 2###
[01:28 - 01:55]

(Play twice this time around, ignore the riff at the end of the first
chorus, just stay on the C)

###Bridge/solo###
[01:55 - 02:23]

(All rhythems are QUARTER NOTE TRIPLETS HERE! So on every beat you play three
times! When the solo comes around don't play the stops)
|--------------------------------------------------------------------|
|--------------------------------------------------------------------|
|7-7-7-7-7-7-7---5-5-5-5-5-5-5---10-10-10-10-10-10-10---5-5-5-5-5-5-5|
|7-7-7-7-7-7-7---5-5-5-5-5-5-5---8--8--8--8--8--8--8----3-3-3-3-3-3-3|
|5-5-5-5-5-5-5---3-3-3-3-3-3-3---8--8--8--8--8--8--8----3-3-3-3-3-3-3|
|--------------------------------8--8--8--8--8--8--8----3-3-3-3-3-3-3|

(on the last time, end on..)
|----|
|----|
|----|
|0~--|
|0~--|
|0~--|

###Chorus###
[02:40 - End]

(Double chorus again, but this time on the last chord play the riff and end on
the D like before the 2nd verse)

________

GUITAR 2
(doesn't come in until 2nd half of the verse)

###Verse###
[00:43 - 00:57]

(QUARTER NOTE TRIPLETS)
|-----------------------------------|
|-----------------------------------|
|-----------------------------------|
|10h12-12-12-12-12-12-12-12-12-12-12| x8
|-----------------------------------|
|-----------------------------------|

###Chorus###
[00:57 - 01:13]
             x6
|--------------|-------------------------------------------------------|
|--------10----|13---13---13---13---13-13-13-13-13-13-13-13-13-13-13-13|
|10------10----|12---12---12---12---12-12-12-12-12-12-12-12-12-12-12-12|
|10--12------12|-------------------------------------------------------|
|--------------|-------------------------------------------------------|
|--------------|-------------------------------------------------------|

###Verse 2###
[01:13 - 01:28]

|-----------------------------------|-----------------------------------|
|-----------------------------------|-----------------------------------|
|10---------------------------------|------------------10-10-10-10-10-10|
|10h12-12-12-12-12-12-12-12-12-12-12|12-12-12-12-12-12------------------| x3
|-----------------------------------|-----------------------------------|
|-----------------------------------|-----------------------------------|

|-----------------------------------|-----------------------------------|
|-----------------------------------|10-10-10-10-10-10-10-10-10-10-10-10|
|10----------------10-10-10-10-10-10|10-10-10-10-10-10-10-10-10-10-10-10|
|10h12-12-12-12-12------------------|-----------------------------------| 
|-----------------------------------|-----------------------------------|
|-----------------------------------|-----------------------------------|

###Chorus###
[01:28 - 01:55]

(Double Chorus)

###Bridge###
[01:55 - 02:09]
                                  
|-----------------------------------|-----------------------------------|
|15-15-15-15-15-15-15-15-15-15-15-15|13-13-13-13-13-13-13-13-13-13-13-13|
|14-14-14-14-14-14-14-14-14-14-14-14|12-12-12-12-12-12-12-12-12-12-12-12|
|-----------------------------------|-----------------------------------|
|-----------------------------------|-----------------------------------|
|-----------------------------------|-----------------------------------|

|-----------------------------------|--------------------------|
|10-10-10-10-10-10-10-10-10-10-10-10|10------------------------|
|10-10-10-10-10-10-10-10-10-10-10-10|12b14--(b14)--(b14)--(b14)|
|-----------------------------------|--------------------------|  x2
|-----------------------------------|--------------------------|
|-----------------------------------|--------------------------|

###Solo###
[02:09 - 02:23]

|-----------------------------------------------------------------------|
|--------------10--------10-------------------------------------------10|
|--------------10--------10------------12b14---r12b14--r12p10---------10|
|---10---12-------12--------12-------x------------------------12--12----|
|12--------------------------------x------------------------------------|
|-----------------------------------------------------------------------|

|-----------------------------------|-----------------------------------|
|13-13-13-13-13-13-13-13-13-13-13-13|13-15-15-15-15-15-15-15-15-15-15-15|
|14-14-14-14-14-14-14-14-14-14-14-14|14-14-14-14-14-14-14-14-14-14-14-14|
|-----------------------------------|-----------------------------------|
|-----------------------------------|-----------------------------------|
|-----------------------------------|-----------------------------------|

|----15b17--------15b17--------15b17---------15b17-r15p13-------|
|--x------------x------------x-------------x--------------15--15|
|x------------x------------x-------------x----------------------|
|---------------------------------------------------------------|
|---------------------------------------------------------------|
|---------------------------------------------------------------|

###Intro Revival###
[02:23 - 02:40]

(listen for these..)
|--------------------------------------------------------------------|
|10---10\--10---10\--10---10---10----10-10-10-10-10-10-10-10-10-10-10|
|10---10\--10---10\--10---10---12b14-14-14-14-14-14-14-14-14-14-14-14|
|--------------------------------------------------------------------|
|--------------------------------------------------------------------|
|--------------------------------------------------------------------|

###Chorus###
[02:40 - End]

(Guitar 2 could join in on that last D for a better effect)





Tap to rate this tab
 
# A B C D E F G H I J K L M N O P Q R S T U V W X Y Z