Song name
# A B C D E F G H I J K L M N O P Q R S T U V W X Y Z

You Me At Six - The Consequence tab

Ok, here we go. Tuning drop d. This tab is not completely mine, i have my own 
interpretation of the song here as well as some borrowed material.

Intro/verse:
e|-------------------------------------------------------------------|
B|-------------------------------------------------------------------|
G|----------------7-7-7-7-7-7-7-7--------5-5-5-5-5-5-5-5-------------|
D|-XX-XX-2-77p55--7-7-7-7-7-7-7-7-2-77p55--5-5-5-5-5-5-5-5-----------|
A|-XX-XX-2-77p55--5-5-5-5-5-5-5-5-2-77p55--3-3-3-3-3-3-3-3-----------|
D|-XX-XX-2-77p55------------------2-77p55----------------------------|

e|-------------------------------------------------------------------------|
B|-------------------------------------------------------------------------|
G|----------------7-7-7-7-7-7-7-7---5-5-5-5-5-5-5-5------------------------|
D|-------2-77p55--7-7-7-7-7-7-7-7---5-5-5-5-5-5-5-5---7-7-7-7-7-7-7-7------|
A|-------2-77p55--5-5-5-5-5-5-5-5---3-3-3-3-3-3-3-3---7-7-7-7-7-7-7-7------|
D|-------2-77p55--------------------------------------7-7-7-7-7-7-7-7------|

Rhythm Guitar Chorus:
e|------------------------------------------------------------------------|
B|------------------------------------------------------------------------|
G|-------------------7777777777777777-------------------------------------|
D|-22222222-55555555-7777777777777777-------2~---777(7)-------------------|
A|-22222222-55555555-5555555555555555-(x2)--2~---777(7)-------------------|
E|-22222222-55555555------------------------2~---777(7)-------------------|

The last bit on the chorus only applies to the first chorus.

Lead Guitar Chorus
e|-0-0-2-0-3-0-0-10-0-0-5-0-7-0-5----------------------------|
B|-----------------------------------------------------------|
G|-----------------------------------------------------------|
D|-----------------------------------------------------------|
A|-----------------------------------------------------------|
D|-----------------------------------------------------------|

Bridge:
e|--10-5-0-777-555-777-10-5-0-777-333-555-|
B|----------------------------------------|
G|----------------------------------------|
D|----------------------------------------| Whole bridge
A|----------------------------------------|
D|----------------------------------------|

Pre-Chorus
e|--0~--2~---10-0-5-0-7777--10-0-5-0-7777-----|
B|--------------------------------------------|
G|--------------------------------------------|
D|--------------------------------------------|
A|--------------------------------------------|
D|--------------------------------------------|

Outro is the same as Chorus.
Tap to rate this tab
# A B C D E F G H I J K L M N O P Q R S T U V W X Y Z