Song name
# A B C D E F G H I J K L M N O P Q R S T U V W X Y Z

You Me At Six - Little Bit Of Truth tab

Email:
Tuning: drop d  ....capo on 1st fret

e|-------------0-------------------------------0-------------------------------------|
B|-------------0-------------------------------0-------------------------------------|
G|---------5--------5------5-------------5----------5-------5------------------------|
D|-----------------------------------------------------------------------------------|
A|-----3---------------3-------------5------------------5----------------------------|
E|-----------------------------------------------------------------------------------|

e|-------------0---------------------------0-----------------------------------------|
B|------------0----------------------------0-----------------------------------------|
G|--------5-------5------5------------5-------5--------5-----------------------------|
D|-----------------------------------------------------------------------------------|
A|----0--------------0-------------0--------------0----------------------------------|
E|-----------------------------------------------------------------------------------|

Chorus

e|------------------------------------------------------------------------------------|
B|------------------------------------------------------------------------------------|
G|--------------5------------------5------------5------3------------------------------|
D|---3----------5---------3--------5-------3----5------3------------------------------|
A|---3----------3---------3--------3------3-----3------1------------------------------|
E|---3--------------------3---------------3-------------------------------------------|

e|---------------------------------------------------------------------------|
B|---------------------------------------------------------------------------|
G|---------------------------------------------------------------------------|
D|---------------------------------------------------------------------------|
A|---------------------------------------------------------------------------|
E|---------------------------------------------------------------------------|

e|---------------------------------------------------------------------------|
B|---------------------------------------------------------------------------|
G|---------------------------------------------------------------------------|
D|---------------------------------------------------------------------------|
A|---------------------------------------------------------------------------|
E|---------------------------------------------------------------------------|

e|---------------------------------------------------------------------------|
B|---------------------------------------------------------------------------|
G|---------------------------------------------------------------------------|
D|---------------------------------------------------------------------------|
A|---------------------------------------------------------------------------|
E|---------------------------------------------------------------------------|

e|---------------------------------------------------------------------------|
B|---------------------------------------------------------------------------|
G|---------------------------------------------------------------------------|
D|---------------------------------------------------------------------------|
A|---------------------------------------------------------------------------|
E|---------------------------------------------------------------------------|

e|---------------------------------------------------------------------------|
B|---------------------------------------------------------------------------|
G|---------------------------------------------------------------------------|
D|---------------------------------------------------------------------------|
A|---------------------------------------------------------------------------|
E|---------------------------------------------------------------------------|


************************************
Tap to rate this tab
 
# A B C D E F G H I J K L M N O P Q R S T U V W X Y Z