Song name
# A B C D E F G H I J K L M N O P Q R S T U V W X Y Z

You Me At Six - No One Does It Better tab

Done by ear... Pretty sure it's right!
Standard Tuning - no capo
In the song there is two guitars playing but this is the melody for the first one. It 
also goes like this throughout the verse.
Enjoy ;)

e|--------------------------------------------------------------------------|
B|--------8---7----7---5--------5--5---5--5---------------------------------|
G|--------------------------------------------------------------------------|
D|--------------------------------------------------------------------------|
A|---7----------------------------------------------------------------------|
E|--------------------------------------------------------------------------|

e|-------------------7------------------------------------------------------|
B|---8---8------7-----------------------------------------------------------|
G|-----------------------9--------------------------------------------------|
D|--------------------------------------------------------------------------|
A|--------------------------------------------------------------------------|
E|--------------------------------------------------------------------------|
Tap to rate this tab
 
# A B C D E F G H I J K L M N O P Q R S T U V W X Y Z