Song name
# A B C D E F G H I J K L M N O P Q R S T U V W X Y Z

You Me At Six - This Turbulence Is Beautiful tab

This Turbulence is Beautiful - You Me At Six

Hey, this is my first tab, and I may be wrong, but there doesn’t appear to be any decent 
tabs for this song, so I thought I’d do it myself. Awesome song; enjoy, and please let 
me know about any mistakes or possible improvements – Jack :)

Contact: jack_goss7@hotmail.co.uk

Tuning: Drop D

[Intro]

e|-----|---------------------------------|---------------------------------|
B|-----|---------------------------------|---------------------------------|
G|-----|---------------------------------|---------------------------------|
D|-14\-|---------4h5p4h5---------4h5p4h5-|--3-3---3-3---3-3---5-5---5--5---|
A|-14\-|--0-0--0----------0-0--0---------|--3-3---3-3---3-3---5-5---5--5---|
D|-14\-|--0-0--0----------0-0--0---------|--3-3---3-3---3-3---5-5---5--5---|


e|---------------------------------|---------------------------------|
B|---------------------------------|---------------------------------|
G|---------------------------------|---------------------------------|
D|---------4h5p4h5---------4h5p4h5-|--3-3---3-3---3-3---5-5---5--5---|
A|--0-0--0----------0-0--0---------|--3-3---3-3---3-3---5-5---5--5---|
D|--0-0--0----------0-0--0---------|--3-3---3-3---3-3---5-5---5--5---|


[Verse]

e|---------------------------------|---------------------------------|
B|---------------------------------|---------------------------------|
G|---------------------------------|---------------------------------|
D|---------4h5p4h5---------4h5p4h5-|--3-3---3-3---3-3---5-5---5--5---|  x6
A|--0-0--0----------0-0--0---------|--3-3---3-3---3-3---5-5---5--5---|
D|--0-0--0----------0-0--0---------|--3-3---3-3---3-3---5-5---5--5---|


[Pre-chorus]

e|---------------------------------|---------------------------------|
B|---------------------------------|---------------------------------|
G|-5-0-0-4-0-0-5-0-0-4-0-0-5-0-4-0-|-5-0-0-4-0-0-5-0-0-4-0-0-5-0-4-0-|
D|---------------------------------|---------------------------------|
A|---------------------------------|---------------------------------|
D----------------------------------|---------------------------------|


e|---------------------------------|---------------------------------|
B|---------------------------------|---------------------------------|
G|-5-0-0-4-0-0-5-0-0-4-0-0-5-0-4-0-|-5-5-5-5-5-5-5-5-7-7-7-7-7-7-7-7-|
D|---------------------------------|---------------------------------|
A|---------------------------------|---------------------------------|
D----------------------------------|---------------------------------|


[Chorus]

e|---------------------------------|---------------------------------|
B|---------------------------------|---------------------------------|
G|---------------------------------|---------------------------------|
D|-0-0-0-0-0-0-0-0-2-2-2-2-2-2-2-2-|-3-3-3-3-3-3-3-3-5-5-5-5-5-5-5-5-|
A|-0-0-0-0-0-0-0-0-2-2-2-2-2-2-2-2-|-3-3-3-3-3-3-3-3-5-5-5-5-5-5-5-5-|
D|-0-0-0-0-0-0-0-0-2-2-2-2-2-2-2-2-|-3-3-3-3-3-3-3-3-5-5-5-5-5-5-5-5-|


e|---------------------------------|---------------------------------|
B|---------------------------------|---------------------------------|
G|---------------------------------|---------------------------------|
D|-----0-0-0-0-0-0-2-2-2-2-2-2-2-2-|-3-3-3-3-3-3-3-3-5-5-5-5-5-5-5-5-|  x3
A|-----0-0-0-0-0-0-2-2-2-2-2-2-2-2-|-3-3-3-3-3-3-3-3-5-5-5-5-5-5-5-5-|
D|-----0-0-0-0-0-0-2-2-2-2-2-2-2-2-|-3-3-3-3-3-3-3-3-5-5-5-5-5-5-5-5-|


e|---------------------------------|---------------------------------|
B|---------------------------------|---------------------------------|
G|---------------------------------|---------------------------------|
D|--3-3-3-3-3---3-3-3-3-3---3-3-3--|--5-5-5-5-5---5-5-5-5-5---5-5-5--|
A|--3-3-3-3-3---3-3-3-3-3---3-3-3--|--5-5-5-5-5---5-5-5-5-5---5-5-5--|
D|--3-3-3-3-3---3-3-3-3-3---3-3-3--|--5-5-5-5-5---5-5-5-5-5---5-5-5--|


e|---------------------------------|---------------------------------|
B|---------------------------------|---------------------------------|
G|---------------------------------|---------------------------------|
D|--3-3-3-3-3---3-3-3-3-3---3-3-3--|--5-5-5-5-5---5-5----------------|
A|--3-3-3-3-3---3-3-3-3-3---3-3-3--|--5-5-5-5-5---5-5----------------|
D|--3-3-3-3-3---3-3-3-3-3---3-3-3--|--5-5-5-5-5---5-5----------------|
Tap to rate this tab
# A B C D E F G H I J K L M N O P Q R S T U V W X Y Z