Song name
# A B C D E F G H I J K L M N O P Q R S T U V W X Y Z

You Me At Six - The Swarm tab

                             THE SWARM - You Me At Six
-------------------------------------------------------------------------------
Tabbed by: Charlie Ford
Email: guitarmaniac1998@hotmail.co.uk

Tuning: Drop D
                 Intro
e|---------------------------------------------------------------------------|
B|-----6-------------8------------10-----------------------------------------|
G|-----7-------------7------------7------------------------------------------|
D|--------(x16)----------(x8)----------(x8)---------Repeat until Chorus------|
A|-----5-------------5------------5------------------------------------------|
E|---------------------------------------------------------------------------|
     CHORUS
e|---------------------------------------------------------------------------|
B|---------------------------------------------------------------------------|
G|---7-----------3-----------------------------------------------------------|
D|---7---(x16)---3---(x16)---3-------------3-----0----5-----------Repeat x2--|
A|---5-----------1-----------3----(x24)----3-----0----5----------------------|
E|---------------------------3-------------3-----0----5----------------------|
End of Chorus
e|---------------------------------------------------------------------------|
B|---------------------------------------------------------------------------|
G|---------------------------------------------------------------------------|
D|---3-3-3----5-5-5---0------------------------------------------------------|
A|---3-3-3----5-5-5---0-*let ring*-------------------------------------------|
E|---3-3-3----5-5-5---0------------------------------------------------------|
REPEAT INTRO, REPEAT CHORUS, REPEAT END OF CHORUS

         Bridge
e|---------------------------------------------------------------------------|
B|---------------------------------------------------------------------------|
G|---------------------------------------------------------------------------|
D|----3-3-3---5-5-5--0-0-0-0-0-0-0-0-0-0-------------------------------------|
A|----3-3-3---5-5-5--0-0-0-0-0-0-0-0-0-0----(x15)----------------------------|
E|----3-3-3---5-5-5--0-0-0-0-0-0-0-0-0-0-------------------------------------|

     Final Chorus
e|---------------------------------------------------------------------------|
B|---------------------------------------------------------------------------|
G|--7---------3-----------------------------------------7-------------3------|
D|--7---------3-----------3------------3---0---5--------7----(x16)----3-(x16)|
A|--5--(x16)--1---(x16)---3---(x24)----3---0---5--------5-------------1------|
E|------------------------3------------3---0---5-----------------------------|

e|---------------------------------------------------------------------------|
B|---------------------------------------------------------------------------|
G|---------------------------------------------------------------------------|
D|---3-------------3---0---3---0----3--------5-------------------------------|
A|---3---(x16)-----3---0---3---0----3--(x4)--5--(x4)-------------------------|
E|---3-------------3---0---3---0----3--------5-------------------------------|

e|---------------------------------------------------------------------------|
B|---------------------------------------------------------------------------|
G|---7-----------3-----------------------------------------------------------|
D|---7---(x16)---3--(x16)----3-------------------------REPEAT ONCE-----------|
A|---5-----------1-----------3---(x32)---------------------------------------|
E|---------------------------3-----------------------------------------------|
       OUTRO
e|---------------------------------------------------------------------------|
B|---------------------------------------------------------------------------|
G|---------------------------------------------------------------------------|
D|---3----5----0----------3----5----0----------------------------------------|
A|---3----5----0----------3----5----0----------------------------------------|
E|---3----5----0----------3----5----0----------------------------------------|


************************************

| /   slide up
| \   slide down
| h   hammer-on
| p   pull-off
| ~   vibrato
| +   harmonic
| x   Mute note
| b   Bend
| pb  Pre-bend
| br  Bend release
| pbr Pre-bend release
| brb Bend release bend

************************************
Tap to rate this tab
 
# A B C D E F G H I J K L M N O P Q R S T U V W X Y Z