Song name
# A B C D E F G H I J K L M N O P Q R S T U V W X Y Z

You Me At Six - The Swarm tab

Song: The Swarm (2012)
Artist: You Me At Six.
Tuning: Drop D (DADGBe)

Guitar 1: Rhythm
Guitar 2: Lead.

Intro/Verse 1 - Guitar 2 only:

e|-----------|
B|--6--8--10-|
G|--7--7--7--|
D|--x--x--x--| x6      (On the 6th time, play the 3rd chord x5 for
A|--5--5--5--|              the pause before the chorus.)
D|-----------|

Chorus - Guitar 1: (Strumming pattern is pretty easy to figure out).

e|------------------------|
B|--3---------------------|
G|--2----10---5-----------|
D|--0----10---3----3-0-5--| x2
A|--0----8----3----3-0-5--|
D|--0----8----3----3-0-5--|

Guitar 2:

             | 1st |  2nd |
e|-----------|-----|------|-----------|
B|-----------|-----|------|-----------|
G|--14---10--|--3--|--17--|--10-7-12--|
D|--x----x---|--x--|--x---|--x--x-x---|
A|--12---8---|--5--|--15--|--8--5-10--|
D|-----------|-----|------|-----------|

Guitar 1:

e|------------------|
B|------------------|
G|------------------|
D|--3-3-3-5-5-5-0~--|
A|--3-3-3-5-5-5-0~--|
D|--3-3-3-5-5-5-0~--|

Guitar 2:

e|------------------------|
B|------------------------|
G|--10-10-10-12-12-12-7~--|
D|--x--x--x--x--x--x--x---|
A|--8--8--8--10-10-10-5~--|
D|------------------------|

Verse 2 - Guitar 1: (Guitar 2 plays exactly the same as the previous verse, but for one 
time less and comes in on the 9th beat after the chorus.)

e|-----------|
B|-----------|
G|--------3--|
D|--0--8--5--| x4 (Comes in after one bar after guitar 2 starts).
A|--0--8--5--|
D|--0--8--5--|



(CHORUS)



Bridge - Guitar 1: (Comes in after the 4th bar, over the bass)

e|-----------------------------------|
B|-----------------------------------|
G|-----------------------------------|
D|-----------------------------------| x4
A|-----------------------------------|
D|--3-3-3-5-5-5-0-0-0-0-0-0-0-0-0-0--|
    * * * * * * * * * * * * * * * *
e|-----------------------------------|
B|-----------------------------------|
G|-----------------------------------|
D|--3-3-3-5-5-5-0-0-0-0-0-0-0-0-0-0--| x8
A|--3-3-3-5-5-5-0-0-0-0-0-0-0-0-0-0--|
D|--3-3-3-5-5-5-0-0-0-0-0-0-0-0-0-0--|

Guitar 2:

e|-------------------------------------|
B|-------------------------------------|
G|-------------------------------------|
D|-------------------------------------| x4
A|--8-8-8-10-10-10-5-5-5-5-5-5-5-5-5-5-|
D|-------------------------------------|
    * * * *  *  *  * * * * * * * * * *

e|---------|
B|---------|
G|--7------|
D|--x x16--| x4
A|--5------|
D|---------|

e|-----------------------------------------|
B|-----------------------------------------|
G|--10-10-10-12-12-12-7-7-7-7-7-7-7-7-7-7--|
D|--x--x--x--x--x--x--x-x-x-x-x-x-x-x-x-x--| x4 (Gradually bend the 5x7's the
A|--8--8--8--10-10-10-5-5-5-5-5-5-5-5-5-5--|     4th time).
D|-----------------------------------------|

Final Chorus/Outro - Guitar 1:

                 |   1st   |       2nd        |
e|---------------|---------|------------------|
B|--3------------|---------|------------------|
G|--2----10---5--|---------|------------------|
D|--0----10---3--|--3-0-5--|--3-0--3-0--3--5--|
A|--0----8----3--|--3-0-5--|--3-0--3-0--3--5--|
D|--0----8----3--|--3-0-5--|--3-0--3-0--3--5--|

e|---------------|
B|--3------------|
G|--2----10---5--|
D|--0----10---3--| x2
A|--0----8----3--|
D|--0----8----3--|


Guitar 2:

                | End of 1st  | End of 2nd|
e|--------------|-------------|-----------|
B|--------------|-------------|-----------|
G|--15--10--17--|--10--7--12--|--17b------|
D|--x---x---x---|--x---x--x---|--x--------|
A|--12--8---15--|--8---5--10--|--15b------|
D|--------------|-------------|-----------|


             |      1st      |    2nd    |
e|-----------|---------------|-----------|
B|-----------|---------------|-----------|
G|--14---10--|--17--14--14b--|--17--17b--|
D|--x----x---|--x---x---x----|--x---x----|
A|--12---8---|--15--12--12b--|--15--15b--|
D|-----------|---------------|-----------|

Both Guitars:

e|------------|
B|------------|
G|------------|
D|--3--5--0~--| x2
A|--3--5--0~--|
D|--3--5--0~--|
Tap to rate this tab
 
# A B C D E F G H I J K L M N O P Q R S T U V W X Y Z