Song name
# A B C D E F G H I J K L M N O P Q R S T U V W X Y Z

You Me At Six - No One Does It Better tab

No One Does It Better by You Me At Six
Tabbed by: Kerry
Tuning: Stanard

I know its not perfect but its pretty close. Plus I learned it in about half an 
hour so gimme some credit :L

If there's any mistakes email me please: youllnevabeatmanutd@hotmail.com


I made both lead and rhythm guitar tabs because NO ONE ELSE WOULD MAKE LEAD ONES. 

INTRO & VERSE 1

Rhythm 
Listening for the timing and stuff. 
e|----------------------------------------------------------------|
B|-----8-----8---7----5-----5-----5---5-----5-------8--7--12--5~--|
G|----------------------------------------------------------------|
D|--9-----9------7----5--5-----5---------5-------------7--12--5~--|
A|--7------------5----3------------------------33/7----5--10--3~--|
E|----------------------------------------------------------------|
    *                                            *

Lead
When the drums come in at about 0:18, play this where ever I have * on the above bit..
If you don't hear it, listen to the acoustic version. 
e|---------------------------------------------------------------|
B|---------------------------------------------------------------|
G|--7h9~---------------------------------------------------------|x6
D|---------------------------------------------------------------|
A|---------------------------------------------------------------|
E|---------------------------------------------------------------|

Prechorus
Rhythm
e|-------------------------------------------------------------|
B|-------------------------------------------------------------|
G|---22222----4------5~----------22222-----4-----5~------------|
D|---22222----4------5~----------22222-----4-----5~------------|
A|---00000----2------3~----------00000-----2-----3~------------|
D|-------------------------------------------------------------|

Lead (I know its not exactly right but it fits)

e|-----------7---------------------------------------------------|
B|--------------8~-----------------------------------------------|
G|---7h9-9-9-----------------------------------------------------|x2
D|---------------------------------------------------------------|
A|---------------------------------------------------------------|
E|---------------------------------------------------------------|


CHORUS 
Rhythm... You can play it two ways.. 

   With these chords                    Like this :)
e|---3--3--3--3------------------------------------------------------|
B|---3--3--3--3------------------------------------------------------|
G|---0--0--2--2-----------OR--------555555555----------77777777------|
D|---2--0--0--0---------------------555555555-55555555-77777777------|
A|---3--2--x--x---------------------333333333-55555555-55555555------|
E|---x--3--x--x-------------------------------33333333---------------|

Lead.. Listen to the acoustic if you can't hear it in the original :L

"What do I do when..."
e|---------------------------------------------------------------|
B|----8--5-----5-------------------------------------------------|
G|----------7-----7---4~----2~---0~------------------------------|
D|--5------------------------------------------------------------|
A|---------------------------------------------------------------|
E|---------------------------------------------------------------|

"And if I just save you..."
e|---------------------------------------------------------------|
B|---------------------------------------------------------------|
G|---------------------------------------------------------------|
D|-----5------5------5------5-----5---5--------------------------|
A|-5h7----5h7----5h7----5h7----5h7-5h7---------------------------|
E|---------------------------------------------------------------|


PRE-VERSE 

rhythm
e|----------------------------------------------------------------|
B|-----8--7-7---5-----5-----5---5-----5-------8--7--12--5~--------|
G|----------------------------------------------------------------|
D|--9-----7-7---5--5-----5---------5-------------7--12--5~--------|
A|--7-----5-5---3------------------------33/7----5--10--3~--------|
E|----------------------------------------------------------------|

lead.. Bend the string slightly! 
e|---------------------------------------------------------------|
B|---------------------------------------------------------------|
G|---------------------------------------------------------------|
D|--7777555555555~-----------------------------------------------|
A|---------------------------------------------------------------|
E|---------------------------------------------------------------|

VERSE 2.. is the exact same as the first :P

e|----------------------------------------------------------------|
B|-----8-----8---7----5-----5-----5---5-----5-------8--7--12--5~--|
G|----------------------------------------------------------------|
D|--9-----9------7----5--5-----5---------5-------------7--12--5~--|
A|--7------------5----3------------------------33/7----5--10--3~--|
E|----------------------------------------------------------------|
    *                                            *

Lead
e|---------------------------------------------------------------|
B|---------------------------------------------------------------|
G|--7h9~---------------------------------------------------------|x6
D|---------------------------------------------------------------|
A|---------------------------------------------------------------|
E|---------------------------------------------------------------|

PRE CHORUS
Rhythm
e|-------------------------------------------------------------|
B|-------------------------------------------------------------|
G|---22222----4------5~----------22222-----4-----5~------------|
D|---22222----4------5~----------22222-----4-----5~------------|
A|---00000----2------3~----------00000-----2-----3~------------|
D|-------------------------------------------------------------|

Lead (I know its not exactly right but it fits)

e|-----------7---------------------------------------------------|
B|--------------8~-----------------------------------------------|
G|---7h9-9-9-----------------------------------------------------|x2
D|---------------------------------------------------------------|
A|---------------------------------------------------------------|
E|---------------------------------------------------------------|

CHORUS 
Rhythm...  

   With these chords                    Like this :)
e|---3--3--3--3------------------------------------------------------|
B|---3--3--3--3------------------------------------------------------|
G|---0--0--2--2-----------OR--------555555555----------77777777------|
D|---2--0--0--0---------------------555555555-55555555-77777777------|
A|---3--2--x--x---------------------333333333-55555555-55555555------|
E|---x--3--x--x-------------------------------33333333---------------|

Lead.. 

"What do I do when..."
e|---------------------------------------------------------------|
B|----8--5-----5-------------------------------------------------|
G|----------7-----7---4~----2~---0~------------------------------|
D|--5------------------------------------------------------------|
A|---------------------------------------------------------------|
E|---------------------------------------------------------------|

"And if I just save you..."
e|---------------------------------------------------------------|
B|---------------------------------------------------------------|
G|---------------------------------------------------------------|
D|-----5------5------5------5-----5---5--------------------------|
A|-5h7----5h7----5h7----5h7----5h7-5h7---------------------------|
E|---------------------------------------------------------------|

Bridge
e|---------------------------------------------------------------|
B|----8--8--8--10-------------12--12--12--12--10--10--10--10-----|
G|------------------X2-------------------------------------------|
D|---------------------------------------------------------------|
A|--10-10-10-10-------------10--10--10--10--10--10--10--10-------|
E|---------------------------------------------------------------|
Play this four times, but on the fourth time play this instead of the last part...
These are the chords I like to use anyways :P
e|---x----------------x---------------x--------------------------|
B|--10----------------12--------------15-------------------------|
G|---x----------------x---------------x--------------------------|
D|--12-x8-------------12-x3-----------12--x2---------------------|
A|--12----------------12--------------12-------------------------|
E|---x----------------x---------------x--------------------------|


LAST CHORUS
 
Rhythm... 

e|---3--3--3--3------------------------------------------------------|
B|---3--3--3--3------------------------------------------------------|
G|---0--0--2--2-----------OR--------555555555----------77777777------|
D|---2--0--0--0---------------------555555555-55555555-77777777------|
A|---3--2--x--x---------------------333333333-55555555-55555555------|
E|---x--3--x--x-------------------------------33333333---------------|

Lead
"If I just save you..." 
e|-----15--12------12--------------------------------------------|
B|--8----------15------15--12~--10~--8~--------------------------|
G|---------------------------------------------------------------|
D|---------------------------------------------------------------|x4
A|---------------------------------------------------------------|
E|---------------------------------------------------------------|

"What do I do when..."
e|-----15--12------12--------------------------------------------|
B|--8----------15------15--12~--10~--8~--------------------------|
G|---------------------------------------------------------------|
D|---------------------------------------------------------------|x4
A|---------------------------------------------------------------|
E|---------------------------------------------------------------|

"No one does it better..."
e|---------------------------------------------------------------|
B|-----8-----8-----8-----8-----8---8-----------------------------|
G|--7h9---7h9---7h9---7h9---7h9-7h9------------------------------|x4
D|---------------------------------------------------------------|
A|---------------------------------------------------------------|
E|---------------------------------------------------------------|

OUTRO

e|----------------------------------------------------------------|
B|-----8-----8---7----5-----5-----5---5-----5-------8--7--12--5~--|
G|----------------------------------------------------------------|
D|--9-----9------7----5--5-----5---------5-------------7--12--5~--|
A|--7------------5----3------------------------33/7----5--10--3~--|
E|----------------------------------------------------------------|
Tap to rate this tab
# A B C D E F G H I J K L M N O P Q R S T U V W X Y Z