Song name
# A B C D E F G H I J K L M N O P Q R S T U V W X Y Z

You Me At Six - Stay With Me Acoustic tab

                           YOU ME AT SIX
                     - Stay With Me Acoustic(intro)
XXXXXXXXXXXXXXXXXXXXXXXXXXXXXXXXXXXXXXXXXXXXXXXXXXXXXXXXXXXXXXXXXXXXXXXXXXXXX

tabed by: miguelpppires

e|-------------------------------------------------8-8-8---------|
B|--10-----10-----10---8-------8-------8-------6-6---------------|
G|10--10-10--10-10--10---10-10---10-10---10--7-------------------|  X2
D|---------------------------------------------------------------|
A|---------------------------------------------------------------|
E|---------------------------------------------------------------|

e|-----------------------------|
B|----6---------5-------10-----|
G|------7-7-------5-----10-----|
D|--7-------5-5-----8-8--------|
A|5----------------------------|
E|-----------------------------|

XXXXXXXXXXXXXXXXXXXXXXXXXXXXXXXXXXXXXXXXXXXXXXXXXXXXXXXXXXXXXXXXXXXXXXXXXXXXX

Note:
This is not 100% like they play on their record, this is one acoustic cover.
Enjoy :)

XXXXXXXXXXXXXXXXXXXXXXXXXXXXXXXXXXXXXXXXXXXXXXXXXXXXXXXXXXXXXXXXXXXXXXXXXXXXX
Tap to rate this tab
# A B C D E F G H I J K L M N O P Q R S T U V W X Y Z