Song name
# A B C D E F G H I J K L M N O P Q R S T U V W X Y Z

You Me At Six - Stay With Me tab

*no capo, standard tuning*

for the intro, you might want to pick:


e|--------------------------------------------------|
B|--------------------------------------------------|
G|--------7--------6----------4---------------------|
D|--------------------------------------------------|
A|--------------------------------------------------|
E|----7-7-------5-5-------3-3-----------------------|  x2



For the rest of the song, strum this (muting the x's):


e|----x-x-x----x-x-x------x-x-x---------------------|
B|----7-7-7----5-5-5------3-3-3---------------------|
G|----7-7-7----6-6-6------4-4-4---------------------|
D|----x-x-x----x-x-x------x-x-x---------------------|
A|----x-x-x----x-x-x------x-x-x---------------------|
E|----7-7-7----5-5-5------3-3-3---------------------|



LYRICS:
You've got a lot to say
for the one that walked away.
I give you take,
its the way it's always been

oh how do i know?
if i should stay or just go
the bottom line is this way that i'll never know

stay with me
stay with me

you've got a lot to say
for the one that pushed me away
i give you take
some things they'll never change
just change

stay with me
stay with me

And I know that I could be this way
And I know that I could walk away

these things take time to grow
it's been said that time heals wounds
but no, i won't be controlled
and so, this story goes

stay with me
stay with me

And I know that I could be this way
And I know that I could walk away
Tap to rate this tab
# A B C D E F G H I J K L M N O P Q R S T U V W X Y Z