Song name
# A B C D E F G H I J K L M N O P Q R S T U V W X Y Z

You Me At Six - Loveboy Acoustic tab

Hey guys, noticed no-one had tabbed the solo which made me sad. Here you go! :)

----------------------------------------------------|
----10-11-12----------------------------------------|
-12----------10-12----------------------------------|
-------------------12-13-14-------------------------|
----------------------------13-15-------------------|
----------------------------------13h15-15-15-13----|

----------------------------------------------------|
----------------------------------------------------|
----------------------------------------------12-12-|
----------------------------------12-10-12-10-------|
-15-15----13-15-15-13-15-10-13-13-------------------|
-------13-------------------------------------------|

----------------------------------------------------|
----------------------------------------------------|
----10----------------------------------------------|
-10----12-15-12-10-12-------------------------------|
----------------------------------------------------|
----------------------------------------------------|

Hope you all think that's pretty much right (If not please tell me so I can edit it), 
have fun!
Tap to rate this tab
# A B C D E F G H I J K L M N O P Q R S T U V W X Y Z