Song name
# A B C D E F G H I J K L M N O P Q R S T U V W X Y Z

You Me At Six - Loveboy Acoustic tab

E|------------------------------||------------------------------|
B|------------------------------||------------------------------|
G|------------------------------||------------------------------|
D|---------4/3------------------||---------4/3------------------|
A|---0-5/7-----4-6--------------||---0-5-7-----4-6--------------|
E|-------------------6-6--------||-------------------6-6--------|

This is VERY basic but sounds pretty good:)
/=slide
don't worry the slide isn't difficult, there is actually an opportunity for another 2 
slides in there if you feel it's necessary.
E|------------------------------|
B|------------------------------|
G|------------------------------|
D|---------4/3------------------|
A|---0-5-7-----4/6--------------|
E|-------------------6-6--------|
Tap to rate this tab
# A B C D E F G H I J K L M N O P Q R S T U V W X Y Z