Song name
# A B C D E F G H I J K L M N O P Q R S T U V W X Y Z

You Me At Six - Fireworks tab

TABBED BY: THOMAS HASSALL
DATE: 7th DECEMBER 2012
----
THIS TAB CONTAINS BOTH PARTS AND I BELIEVE IT TO BE PRETTY CLOSE TO THE ALBUM VERSION. 

PLEASE EMAIL ME IF YOU HAVE ANY COMMENTS/CORRECTIONS AT:
TOMHASSALL@HOTMAIL.CO.UK

RATE PLEASE!!

AND ENJOY x

|-----------------------------------------------------------------|
|GUITAR 1:                                                        |
|-----------------------------------------------------------------|

INTRO:
e|-----------------------------------------------------------------------|
B|----8---8---8---8----5---5---5---5----8---8---8---8----7---7---7---7---|
G|----7-7-7-7-7-7-7-7--7-7-7-7-7-7-7-7--7-7-7-7-7-7-7-7--7-7-7-7-7-7-7-7-| 
D|-----------------------------------------------------------------------|
A|-----------------------------------------------------------------------|
E|-----------------------------------------------------------------------|x2


VERSE 1:
Em                             D
So this is the end, of you and me
                                       C
we had a good run, and I'm setting you free
                                      D
to do as you want, to do as you please without me..

         Em     
Remember when, you were my boat
              D
and I was your sea
                                C
together we'd float, so delicately
                                D
But that was back when we could talk about anything..


PRE-CHORUS:
SEE GUITAR 2 BELOW


CHORUS:
G           D           C
Cuz I don't know, who I am when you're
C
running circles in my head
G           D                  C
And I don't know, just who you are
C
When you're sleeping in someone else's bed


VERSE 2:
Em                           D
3 whole words, and 8 letters late
                                      C
and that would've worked, on me yesterday
                                      D
We're not the same, I wish that could change..
D
But it can't
 
               Em
And I say your name, and in the same breath
          D
I say something, that I'll grow to regret
              C                                 D
So keep your hands on your chest, and sing with me, 
D
that we don't wanna believe


CHORUS:
G           D           C
Cuz I don't know, who I am when you're
C
running circles in my head
G           D                  C
And I don't know, just who you are
C
When you're sleeping in someone else's bed


BRIDGE:
G                      D
So it's true what they say, 
                C                       G
if you love someone you should set them free
G                      D                          C
Oh it's true what they say, you went and threw it away..


CHORUS:
                     G    D    C
I don't know who you are, 
C                         G   D   C
and I don't know who you are
       G            D            C
and oh cuz I don't know who you are
C                                
when you sleep with somebody else
G           D          C                              
cuz I don't know who I am, when you're sleeping with him
G                       D                      C
and it's true what they say, went and threw it away..


|-----------------------------------------------------------------|
|GUITAR 2:                                                        |
|-----------------------------------------------------------------|


INTRO:
e|-----------------------------------------------------------------------|
B|----8---8---8---8----5---5---5---5----8---8---8---8----7---7---7---7---|
G|----7-7-7-7-7-7-7-7--7-7-7-7-7-7-7-7--7-7-7-7-7-7-7-7--7-7-7-7-7-7-7-7-| 
D|-----------------------------------------------------------------------|
A|-----------------------------------------------------------------------|
E|-----------------------------------------------------------------------|x2


VERSE 1:
e|-----------------------------------------------------------------------|
B|----8---8---8---8----5---5---5---5----8---8---8---8----7---7---7---7---|
G|----7-7-7-7-7-7-7-7--7-7-7-7-7-7-7-7--7-7-7-7-7-7-7-7--7-7-7-7-7-7-7-7-| 
D|-----------------------------------------------------------------------|
A|-----------------------------------------------------------------------|
E|-----------------------------------------------------------------------| 

e|-----------------------------------------------------------------------|
B|----8---8---8---8----5---5---5---5----8---8---8---8---10--10--10--10---|
G|----7-7-7-7-7-7-7-7--7-7-7-7-7-7-7-7--7-7-7-7-7-7-7-7--7-7-7-7-7-7-7-7-| 
D|-----------------------------------------------------------------------|
A|-----------------------------------------------------------------------|
E|-----------------------------------------------------------------------|x2


PRE-CHORUS:
e|---------------------------------------|
B|----8---8---8---8----8---8---8---8-----|
G|----7-7-7-7-7-7-7-7--7-7-7-7-7-7-7-7---|
D|---------------------------------------|
A|---------------------------------------|
E|---------------------------------------|


CHORUS:
e|------------------------------------------------------------------------|
B|----8---8---10--10---7---7---8---7----5---5---5---5----8---8---10--10---|
G|----7-7-7-7--7-7-7-7-7-7-7-7-7-7-7-7--7-7-7-7-7-7-7-7--7-7-7-7--7-7-7-7-| 
D|------------------------------------------------------------------------|
A|------------------------------------------------------------------------|
E|------------------------------------------------------------------------| 


VERSE 2, PT 1 & 2:
e|-----------------------------------------------------------------------|
B|----8---8---8---8----5---5---5---5----8---8---8---8----7---7---7---7---|
G|----7-7-7-7-7-7-7-7--7-7-7-7-7-7-7-7--7-7-7-7-7-7-7-7--7-7-7-7-7-7-7-7-| 
D|-----------------------------------------------------------------------|
A|-----------------------------------------------------------------------|
E|-----------------------------------------------------------------------| 

e|-----------------------------------------------------------------------|
B|----8---8---8---8----5---5---5---5----8---8---8---8---10--10--10--10---|
G|----7-7-7-7-7-7-7-7--7-7-7-7-7-7-7-7--7-7-7-7-7-7-7-7--7-7-7-7-7-7-7-7-| 
D|-----------------------------------------------------------------------|
A|-----------------------------------------------------------------------|
E|-----------------------------------------------------------------------|x2


VERSE 2, PT 2:
(ON THE 4TH TIME DO NOT PLAY THE LAST TWO 17'S)
e|----15-15-15-14-14-14--------------------------------|
B|----------------------15-15-17-17-17-15-15-15-17-17--|
G|-----------------------------------------------------| x4
D|-----------------------------------------------------|
A|-----------------------------------------------------|
E|-----------------------------------------------------|


CHORUS:
e|------------------------------------------------------------------------|
B|----8---8---10--10---7---7---8---7----5---5---5---5----8---8---10--10---|
G|----7-7-7-7--7-7-7-7-7-7-7-7-7-7-7-7--7-7-7-7-7-7-7-7--7-7-7-7--7-7-7-7-| 
D|------------------------------------------------------------------------|
A|------------------------------------------------------------------------|
E|------------------------------------------------------------------------|


BRIDGE:
e|----------7----------|
B|---10-8-----8---10-8-|
G|--------7-----7------| x6
D|---------------------|
A|---------------------|
E|---------------------|

e|--7-
B|--8-
G|--7-
D|----
A|----
E|----


CHORUS:
e|--1010101010101010-1515151515151515-1010101010101010-1515151515151515--|
B|-----------------------------------------------------------------------|
G|-----------------------------------------------------------------------| 
D|-----------------------------------------------------------------------|
A|-----------------------------------------------------------------------|
E|-----------------------------------------------------------------------|x2


e|----------7----------|
B|---10-8-----8---10-8-|
G|--------7-----7------| x8
D|---------------------|
A|---------------------|
E|---------------------|


OUTRO:
LET FINAL NOTES RING
e|-------------------------------------------|
B|----7---7----8---8---10--10---8---8----5~--|
G|----7-7-7-7--7-7-7-7--7-7-7-7-7-7-7-7--7~--|
D|-------------------------------------------|
A|-------------------------------------------|
E|-------------------------------------------|
Tap to rate this tab
# A B C D E F G H I J K L M N O P Q R S T U V W X Y Z