Song name
# A B C D E F G H I J K L M N O P Q R S T U V W X Y Z

You Me At Six - Time Is Money tab

This is my first tab! So if you have any critic please send it to me!

Artist: You me at six
Song: Time Is Money
Album: Sinners never sleep
Tuning: Drop D (D-A-D-G-B-e)

0:00 - 0:22

E|----------------------------|  
B|----------------------------|
G|----------------------------|  Play 8 Times
D|-1-3-1-3-3---3-------1-1-1--|
A|-1-3-1-3-3---3-----6-1-1-1--|
D|-1-3-1-3-3---3-6-3---1-1-1--|

0:22 - 0:24

E|----------------------------|
B|----------------------------|
G|----------------------------|  Play 1 Time
D|-3-3-3-3--1-3-6-3-----------|
A|-3-3-3-3--1-3-6-3-----------|
D|-3-3-3-3--1-3-6-3-----------|
 PM<----->

0:24 - 0:33

E|----------------------------|
B|----------------------------|
G|----------------------------|  Play 3 Times
D|-1-3-1-6-3------------------|
A|-1-3-1-6-3------------------|
D|-1-3-1-6-3------------------|

0:33 - 0:45

E|----------------------------|
B|----------------------------|
G|----------------------------|  Play 4 Times
D|-1-3-1-6-3---3-3-3---3-3-3--|
A|-1-3-1-6-3---3-3-3---3-3-3--|
D|-1-3-1-6-3---3-3-3---3-3-3--|
             PM<->   PM<->

0:45 - 0:56 Rhythm Guitar

E|----------------------------|
B|----------------------------|  Play 1 Time 
G|-5--------6-----------------|
D|-3-(16X)--4-(16X)-----------|
A|-3--------4-----------------|
D|-3--------------------------|

0:56 - 1:07 Rhythm Guitar

E|----------------------------|
B|----------------------------|  Play 1 Time
G|-5--------6--------3-3------|
D|-3-(16X)--4-(12X)--3-3------|
A|-3--------4--------1-1------|
D|-3--------------------------|

0:45 - 0:50 Lead Guitar

E|-------------------------------|
B|-6-(12X)-9-(4X)-8-(8X)-11-(8X)-|  Play 1 Time
G|-------------------------------|
D|-------------------------------|
A|-------------------------------|
D|-------------------------------|

0:50 - 0:55 Lead Guitar

E|----------------------------|
B|-9-8------9-8---------------|
G|-----10-8-----10-8----------|  Play 8 times 
D|----------------------------|
A|----------------------------|
D|----------------------------|

0:56 - 1:01 Lead Guitar

E|-------------------------------|
B|-9-(12X)-11-(4X)-8-(8X)-9-(8X)-|  Play 1 Time
G|-------------------------------|
D|-------------------------------|
A|-------------------------------|
D|-------------------------------|

1:01 - 1:07

E|----------------------------|
B|-9-8------9-8---------------|
G|-----10-8-----10-8----------|  Play 7 times 
D|----------------------------|
A|----------------------------|
D|----------------------------|

1:07 - 1:10

E|----------------------------|  
B|----------------------------|
G|----------------------------|  Play 2 Times
D|-1-3-1-3-3---3-------1-1-1--|
A|-1-3-1-3-3---3-----6-1-1-1--|
D|-1-3-1-3-3---3-6-3---1-1-1--|

1:10 - 1:13

E|----------------------------|
B|----------------------------|
G|----------------------------|  Play 1 Time
D|-3-3-3-3--1-3-6-3-----------|
A|-3-3-3-3--1-3-6-3-----------|
D|-3-3-3-3--1-3-6-3-----------|
 PM<----->

1:13 - 1:22

E|----------------------------|
B|----------------------------|
G|----------------------------|  Play 3 Times
D|-1-3-1-6-3------------------|
A|-1-3-1-6-3------------------|
D|-1-3-1-6-3------------------|

1:22 - 1:34

E|----------------------------|
B|----------------------------|
G|----------------------------|  Play 4 Times
D|-1-3-1-6-3---3-3-3---3-3-3--|
A|-1-3-1-6-3---3-3-3---3-3-3--|
D|-1-3-1-6-3---3-3-3---3-3-3--|
             PM<->   PM<->

1:34 - 1:45 Rhythm Guitar

E|----------------------------|
B|----------------------------|  Play 1 Time
G|-5--------6-----------------|
D|-3-(16X)--4-(16X)-----------|
A|-3--------4-----------------|
D|-3--------------------------|

1:45 - 1:56 Rhythm Guitar

E|----------------------------|
B|----------------------------|  Play 1 Time
G|-5--------6--------3-3------|
D|-3-(16X)--4-(12X)--3-3------|
A|-3--------4--------1-1------|
D|-3--------------------------|

1:34 - 1:39 Lead Guitar

E|-------------------------------|
B|-6-(12X)-9-(4X)-8-(8X)-11-(8X)-|  Play 1 Time
G|-------------------------------|
D|-------------------------------|
A|-------------------------------|
D|-------------------------------|

1:39 - 1:45 Lead Guitar

E|----------------------------|
B|-9-8------9-8---------------|
G|-----10-8-----10-8----------|  Play 8 times 
D|----------------------------|
A|----------------------------|
D|----------------------------|

1:45 - 1:50 Lead Guitar

E|-------------------------------|
B|-9-(12X)-11-(4X)-8-(8X)-9-(8X)-|  Play 1 Time
G|-------------------------------|
D|-------------------------------|
A|-------------------------------|
D|-------------------------------|

1:50 - 1:56 Lead Guitar

E|----------------------------|
B|-9-8------9-8---------------|
G|-----10-8-----10-8----------|  Play 7 Times 
D|----------------------------|
A|----------------------------|
D|----------------------------|

1:56 - 2:04

E|----------------------------|
B|----------------------------|
G|----------------------------|  Play 1 Time
D|-3-3-1-3-3~-----------------|
A|-3-3-1-3-3~-----------------|
D|-3-3-1-3-3~-----------------|

2:04 - 2:08

E|----------------------------|  
B|----------------------------|
G|----------------------------|  Play 1 Time
D|-1-3-1-3~-------------------|
A|-1-3-1-3~-------------------|
D|-1-3-1-3~-------------------|

2:08 - 2:09

E|----------------------|  
B|----------------------|
G|----------------------|  Play 2 Times
D|-3~-------------------|
A|-3~-------------------|
D|-3~-------------------|

2:09 - 2:51

E|---------------------------|
B|---------------------------|
G|---------------------------|  Play 6 Times
D|-3-3-1-3-3-----------------|
A|-3-3-1-3-3-(3X)--6---5-----|
D|-3-3-1-3-3------6-6-5-5----|

2:51 - 2:55

E|--------------------------|
B|--------------------------|
G|--------------------------|  Play 1 Time
D|-3-3-1-3~-----------------|
A|-3-3-1-3~-----------------|
D|-3-3-1-3~-----------------|
Tap to rate this tab
 
# A B C D E F G H I J K L M N O P Q R S T U V W X Y Z