Song name
# A B C D E F G H I J K L M N O P Q R S T U V W X Y Z

You Me At Six - Playing The Blame Game tab

Playing The Blame Game (Live)
You Me At Six
Final Night Of Sin
Track: 13
-------------------------------------------------------------------------------
Tabbed By: Monkeywrench98

Tuning Standard: E

Intro
On The Live Track They Do A Little Improv Jazz Bit Which Is This:
E:|---------------------------------7----|
B:|---------------------------------7----|
G:|---------------------------------7----|
D:|--------------------------------------|   X5
A:|--------------------------------------|
E:|-5-7-7----5-7-7----5-7-7---5-7-7------|

Third Time Round Bring In Bass

Fourth Time Round Lead Guitar Plays:
E:|----------------------------------7-|
B:|----------------------------------7-|
G:|----------------------------------7-|
D:|-7-9-9----7-9-9----7-9-9----7-9-9---|
A:|------------------------------------|
E:|------------------------------------|

Fifth Time Round Add Abit Of Improv:
E:|----------------------------------------------|
B:|----------------------------------------------|
G:|----------------------------------------------|
D:|-7-9-9-14b15-12-7-9-9-11b12-9-7-9-9----7-9-9\-|
A:|----------------------------------------------|
E:|----------------------------------------------|

Actual Song
------------
Verse
-----
E:|-7----10---7-------7----10--9---7------*
B:|-7------7--7-------7------7--7--7------*
G:|-7-------7-7----7--7-------7--7-7-6~---*
D:|-------------7/9-9------------------7/9*
A:|---------------------------------------*
E:|---------------------------------------*

E:|-7----10--9---7-------|
B:|-7------7--7--7-------|
G:|-7-------7--7-7-6~----|
D:|------------------7/9-|
A:|----------------------|
E:|----------------------|


* Rhythm Guitar Comes In Then With:
E:|-----------------------------------------------|
B:|-----------------------------------------------|
G:|-4-4-4-4-7-7-----4-4-4-4-7-7------4-4-4--4-4-4-|
D:|-4-4-4-4-7-7-5-5-4-4-4-4-7-7-5-5--4-4-4--4-4-4-|
A:|-2-2-2-2-5-5-5-5-2-2-2-2-5-5-5-5--2-2-2--2-2-2-|
E:|-------------3-3-------------3-3---------------|
   B5       D5  G5  B5      D5  G5   B5     B5

Lyrics For Verse 1
------------------
You're not on my list of things to do
'Cause I've already done you
And I'm protective, it's secure
And only when it suits you
* And is this all in vain?
Can these words explain?

Chorus
------
Lead Guitar:
E:|-10--12-10--12-10--12-9--10-|(Hold)
B:|---10-----10-----10----10---|
G:|----------------------------|
D:|----------------------------|
A:|----------------------------|
E:|----------------------------|


Rhythm Guitar:
E:|------------------------------------|
B:|------------------------------------|
G:|-4-4-4-4-7-7-7-7--------------------|
D:|-4-4-4-4-7-7-7-7-5-5-5-5-7-7-7-7----|
A:|-2-2-2-2-5-5-5-5-5-5-5-5-7-7-7-7----|   X2
E:|-----------------3-3-3-3-5-5-5-5----|

End On B5

Lyrics For Chorus
-----------------
Desperate minds mean desperate measures
We've gotta give this one together
You're young and in love,
That should be enough

Intro
-----
E:|-7----10--9---7-------|
B:|-7------7--7--7-------|
G:|-7-------7--7-7----7--|
D:|----------------7/9-9-|
A:|----------------------|
E:|----------------------|

Verse 2
-------
Lead:
E:|-7----10--9---7---------|
B:|-7------7--7--7---------|
G:|-7-------7--7-7-6~------|  X1
D:|------------------7/9---|
A:|------------------------|
E:|------------------------|

Rhythm:
E:|---------------------------------|
B:|---------------------------------|
G:|-4-4-4-4-7-7-----4-4-4-4-7-7-----|
D:|-4-4-4-4-7-7-5-5-4-4-4-4-7-7-5-5-|
A:|-2-2-2-2-5-5-5-5-2-2-2-2-5-5-5-5-|
E:|-------------3-3-------------3-3-|

Lyrics For Verse
At least you'll have nice thoughts of me
 When I'm cheating on you in your dreams
I told you before, my closet's clean
And that these bones don't belong to me

Pre-chorus
----------
Rhythm:

E:|---------x-x-x-x-----------------x-x-x-x---------|
B:|---------x-x-x-x-----------------x-x-x-x---------|
G:|-4-4-4-4-x-x-x-x-7-7-7-7---------x-x-x-x---------|
D:|-4-4-4-4-x-x-x-x-7-7-7-7-5-5-5-5-x-x-x-x-7-7-7-7-|
A:|-2-2-2-2-x-x-x-x-5-5-5-5-5-5-5-5-x-x-x-x-7-7-7-7-|
E:|-------------------------3-3-3-3-x-x-x-x-5-5-5-5-|

E:|---------x-x-x-x---------------------------------|
B:|---------x-x-x-x---------------------------------|
G:|-4-4-4-4-x-x-x-x-7-7-7-7-14-14-14-14-12-12-12-12-|
D:|-4-4-4-4-x-x-x-x-7-7-7-7-x--x--x--x--x--x--x--x--|
A:|-2-2-2-2-x-x-x-x-5-5-5-5-12-12-12-12-10-10-10-10-|
E:|---------x-x-x-x---------------------------------|

E:|*---------------------|
B:|*---------------------|
G:|*-4----6----7----9----|
D:|*-4----6----7----9----|
A:|*-2----4----5----7----|
E:|*---------------------|

Lead: (Starts At *)
E:|----------------------|
B:|----------------------|
G:|-4~----6~----7~----9~-|
D:|----------------------|
A:|----------------------|
E:|----------------------|

Lyrics For Pre-Chorus
---------------------
You Hold Me Down
By Keeping Me Around!

Chorus
-------
Lead Guitar:
E:|-10--12-10--12-10--12-9--10-|(Hold)
B:|---10-----10-----10----10---|
G:|----------------------------|
D:|----------------------------|
A:|----------------------------|
E:|----------------------------|


Rhythm Guitar:
E:|------------------------------------|
B:|------------------------------------|
G:|-4-4-4-4-7-7-7-7--------------------|
D:|-4-4-4-4-7-7-7-7-5-5-5-5-7-7-7-7----|
A:|-2-2-2-2-5-5-5-5-5-5-5-5-7-7-7-7----|   X2
E:|-----------------3-3-3-3-5-5-5-5----|

End On B5

Lyrics For Chorus
-----------------
Desperate minds mean desperate measures
We've gotta give this one together
You're young and in love,
That should be enough

Middle 8
--------------------------------|
E:|-----------------------------|
B:|-----------------------------|
G:|-----------------------------|
D:|-----------------------------|
A:|-9-9-9-9-9-9-9-9-9-9-9-9-9-9-|
E:|-7-7-7-7-7-7-7-7-7-7-7-7-7-7-|

E:|---------------------------------------|
B:|---------------------------------------|
G:|---------------------------------------|
D:|---------------------------------------|
A:|-9-9-9-12-9-9-9-14-9-9-9-12-9-9-9-14---|  X2
E:|-7-7-7-10-7-7-7-12-7-7-7-10-7-7-7-12---|

E:|*-----------------------|
B:|*-----------------------|
G:|*-----------------------|
D:|*-9----11---12----14----|  X2
A:|*-9----11---12----14----|
E:|*-7----9----10----12----|

Lead: (Comes In On The *)
E:|---------------------------------------------------|
B:|-----------------------------10----10----10----10--|
G:|-4-4-6-7~----4-4-7-9~------------------------------|
D:|-------------------------9-12--9-12--9-12--9-12----| X2
A:|---------------------------------------------------|
E:|---------------------------------------------------|

End Of Middle 8
Rhythm
E:|-----------------|
B:|-----------------|
G:|-----------------|
D:|-9-9-9-9-9-9-9-9-|
A:|-9-9-9-9-9-9-9-9-|
E:|-7-7-7-7-7-7-7-7-|

Lyrics For Middle 8
-------------------
You hold me down by keeping me around
And no one takes me home, no one takes me home
You hold me down by keeping me around
And no one takes me home, no one takes me home

Chorus X2
----------
Lead Guitar:
E:|-10--12-10--12-10--12-9--10-|(Hold)
B:|---10-----10-----10----10---|
G:|----------------------------|
D:|----------------------------|
A:|----------------------------|
E:|----------------------------|


Rhythm Guitar:
E:|------------------------------------|
B:|------------------------------------|
G:|-4-4-4-4-7-7-7-7--------------------|
D:|-4-4-4-4-7-7-7-7-5-5-5-5-7-7-7-7----|
A:|-2-2-2-2-5-5-5-5-5-5-5-5-7-7-7-7----|   X2
E:|-----------------3-3-3-3-5-5-5-5----|

End On B5

Lyrics For Chorus
-----------------
Desperate minds mean desperate measures
We've gotta give this one together
You're young and in love,
That should be enough

Young and in love
That should be, that should be enough
Young and in love
That should be, that should be enough

Ending
-------
Lead:
E:|-------------------|
B:|-------------------|
G:|----7---7---7------|
D:|-9-9-9-9-9-9-9-7/9-|
A:|-------------------|
E:|-------------------|

Rhythm:
E:|----------------------------|
B:|----------------------------|
G:|----------------------------|
D:|----------------------------|
A:|-9-9-12-9-9-12-9-9-12-9-7/9-|
E:|-7-7-10-7-7-10-7-7-10-7-5/7-|

Hope You Enjoyed It :D
Tap to rate this tab
# A B C D E F G H I J K L M N O P Q R S T U V W X Y Z