Song name
# A B C D E F G H I J K L M N O P Q R S T U V W X Y Z

You Me At Six - This Is The First Thing tab

Great song from You me at Six. This is a fairly simple way of playing it and Im not sure 
if its
there way but it sounds decent and near enough.
Not quite worked out the middle eight part, but it is similar to the chorus in the 
chords it uses.
 I play both variations of the chorus just to make it sound slightly different each time 
I play it.
Any feedback in comments please, I know its not perfect so some help would be great.
Enjoy. Rowan Osborn

Intro/verse

e|---------4-----------2------2-------------------|
B|---------5-----------4------4-------------------|
G|-6-6-6-6-6---4-4-4-4-4----4-4-------------------|
D|------------------------------------------------|
A|------------------------------------------------|
E|------------------------------------------------|

e|---------4-----------2------2------------------|
B|---------5-----------4------4------------------|
G|-4-4-4-4-6---6-6-6-6-4----6-4------------------|
D|-----------------------------------------------|
A|-----------------------------------------------|
E|-----------------------------------------------|

Chorus

e|---------------------------------------------|
B|---------------------------------------------|
G|---------------------------------------------|
D|--6--6--6--6--6------------------------------|
A|--4--4--4--4--4-----7--7--7--7--7------------|
E|--------------------5--5--5--5--5------------|

e|---------------------------------------------|
B|---------------------------------------------|
G|---------------------------------------------|
D|---------------------4--4--4--4--4-----------|
A|--2--2--2--2--2------2--2--2--2--2-----------|
E|--0--0--0--0--0------------------------------|

or

e|---------------------------------------------|
B|---------------------------------------------|
G|--6--6--6--6--6------2--2--2--2--2-----------|
D|--6--6--6--6--6------2--2--2--2--2-----------|
A|--4--4--4--4--4------0--0--0--0--0-----------|
E|----------------------------=----------------|



e|---------------------------------------------|
B|---------------------------------------------|
G|--------------------4--4--4--4--4------------|
D|--2--2--2--2--2-----4--4--4--4--4------------|
A|--2--2--2--2--2-----2--2--2--2--2------------|
E|--0--0--0--0--0------------------------------|
Tap to rate this tab
 
# A B C D E F G H I J K L M N O P Q R S T U V W X Y Z