Song name
# A B C D E F G H I J K L M N O P Q R S T U V W X Y Z

You Me At Six - Loverboy Acoustic tab

I worked this out and it sounds accurate but people have been asking for a tab so yeah, 
enjoy. (sorry for this, first time tabbing)

e-----------------------------------15-15-15p13------13---------------|
B------------------------------------------------15-------------------|
G---------------------10h12p10--12------------------------------------|
D---12----------10h12-------------------------------------------------|
A-------9h10----------------------------------------------------------|
D---------------------------------------------------------------------|

e----------------------------------------------------------------------|
B--13h15-15-15-15p13--------15-------10-12-12-12-10----------10h12-----|
G--------------------14---14--12--------------------12--10h12------12--|b
D----------------------------------------------------------------------|
A----------------------------------------------------------------------|
D----------------------------------------------------------------------|

Sorry if its bad, it sounds good to play, please change and improve this if needed! thanks!
Tap to rate this tab
# A B C D E F G H I J K L M N O P Q R S T U V W X Y Z