Song name
# A B C D E F G H I J K L M N O P Q R S T U V W X Y Z

You Me At Six - Lived A Lie tab

-------------------------------------------------------------------------------
                             LIVED A LIE - You Me At Six
-------------------------------------------------------------------------------
Tabbed by: Sťan Kearney (twitter: @yenraeks)
Tuning: Standard (E A D G B e)


Intro & Verse
e|-------------------------------------------------------------------------|
B|-------------------------------------------------------------------------|
G|-------------------------------------------------------------------------|
D|--5-5-5-5-5-5-5-5-5-5-5-5-5-5-5-5----------------------------------------|      
A|--2-2-2-3-3-3-3-3-5-5-5-5-5-5-5-5----------------------------------------|     
E|------------------3-3-3-3-3-3-3-3----------------------------------------|

After the drums come in, this is played with some delay
e|-------------------------------------------------------------------------|
B|-------------------------------------------------------------------------|
G|----------------------12---12---12---12----------------------------------|
D|-------------------------------------------------------------------------|     
A|-------------------10---10---10---10-------------------------------------|     
E|-------------------------------------------------------------------------|


--


RHYTHM chorus
e|-------------------------------------------------------------------------|
B|-------------------------------------------------------------------------|
G|--5-5-5-5-5-5-5-5-----------------7-7-7-7-7-7-7-7-7-7-7-7-7-7-7-7--------|
D|--5-5-5-5-5-5-5-5-5-5-5-5-5-5-5-5-7-7-7-7-7-7-7-7-7-7-7-7-7-7-7-7--------|      
A|--3-3-3-3-3-3-3-3-5-5-5-5-5-5-5-5-5-5-5-5-5-5-5-5-5-5-5-5-5-5-5-5--------|     
E|------------------3-3-3-3-3-3-3-3----------------------------------------|

LEAD chorus (t = 10th fret)
e|-------------------------------------------------------------------------|
B|--7-7-7-8-8-8-8-8-t-t-t-8-8-8-8-8-7-7-7-8-8-8-8-8-7-7-7-8-8-8-8-8--------|
G|--7-7-7-7-7-7-7-7-7-7-7-7-7-7-7-7-7-7-7-7-7-7-7-7-7-7-7-7-7-7-7-7--------|
D|-------------------------------------------------------------------------|      
A|-------------------------------------------------------------------------|     
E|-------------------------------------------------------------------------|

OR

e|-------------------------------------------------------------------------------------------------|
B|-------------------------------------------------------------------------------------------------|
G|-11-11-11-12-12-12-12-12-11-11-11-12-12-12-12-12-11-11-11-12-12-12-12-12-11-11-11-12-12-12-12-12-|
D|-12-12-12-12-12-12-12-12-12-12-12-12-12-12-12-12-12-12-12-12-12-12-12-12-12-12-12-12-12-12-12-12-|
A|-------------------------------------------------------------------------------------------------|
E|-------------------------------------------------------------------------------------------------|

Lead line at the end of the chorus
e|--12-------12-------12----14-------17-------17---------------------------|
B|-----15-15----15-15----15----15-15----15-15------------------------------|
G|-------------------------------------------------------------------------|
D|-------------------------------------------------------------------------|     
A|-------------------------------------------------------------------------|     
E|-------------------------------------------------------------------------|


--


Verse 2
e|-------------------------------------------------------------------------|
B|-------------------------------------------------------------------------|
G|-------------------------------------------------------------------------|
D|--5-5-5-5-5-5-5-5-5-5-5-5-5-5-5-5----------------------------------------|      
A|--2-2-2-3-3-3-3-3-5-5-5-5-5-5-5-5----------------------------------------|     
E|------------------3-3-3-3-3-3-3-3----------------------------------------|

e|-------------------------------------------------------------------------|
B|-------------------------------------------------------------------------|
G|----------------------12---12---12---12----------------------------------|
D|-------------------------------------------------------------------------|      
A|-------------------10---10---10---10-------------------------------------|     
E|-------------------------------------------------------------------------|

After playing this ^, play this;
e|-------------------|
B|-------------------|
G|-------------------|
D|--9-7-9-7-5~~~-----|      
A|-------------------|     
E|-------------------|


--


RHYTHM chorus
e|-------------------------------------------------------------------------|
B|-------------------------------------------------------------------------|
G|--5-5-5-5-5-5-5-5-----------------7-7-7-7-7-7-7-7-7-7-7-7-7-7-7-7--------|
D|--5-5-5-5-5-5-5-5-5-5-5-5-5-5-5-5-7-7-7-7-7-7-7-7-7-7-7-7-7-7-7-7--------|      
A|--3-3-3-3-3-3-3-3-5-5-5-5-5-5-5-5-5-5-5-5-5-5-5-5-5-5-5-5-5-5-5-5--------|     
E|------------------3-3-3-3-3-3-3-3----------------------------------------|

LEAD chorus (t = 10th fret)
e|-------------------------------------------------------------------------|
B|--7-7-7-8-8-8-8-8-t-t-t-8-8-8-8-8-7-7-7-8-8-8-8-8-7-7-7-8-8-8-8-8--------|
G|--7-7-7-7-7-7-7-7-7-7-7-7-7-7-7-7-7-7-7-7-7-7-7-7-7-7-7-7-7-7-7-7--------|
D|-------------------------------------------------------------------------|      
A|-------------------------------------------------------------------------|     
E|-------------------------------------------------------------------------|

OR

e|-------------------------------------------------------------------------------------------------|
B|-------------------------------------------------------------------------------------------------|
G|-11-11-11-12-12-12-12-12-11-11-11-12-12-12-12-12-11-11-11-12-12-12-12-12-11-11-11-12-12-12-12-12-|
D|-12-12-12-12-12-12-12-12-12-12-12-12-12-12-12-12-12-12-12-12-12-12-12-12-12-12-12-12-12-12-12-12-|
A|-------------------------------------------------------------------------------------------------|
E|-------------------------------------------------------------------------------------------------|

Lead line
e|--12-------12-------12----14-------17-------17---------------------------|
B|-----15-15----15-15----15----15-15----15-15------------------------------|
G|-------------------------------------------------------------------------|
D|-------------------------------------------------------------------------|     
A|-------------------------------------------------------------------------|     
E|-------------------------------------------------------------------------|


--


RHYTHM bridge
e|-----------------------------------|
B|-----------------------------------|
G|--------------7~~~~-5~~~~----------|
D|--5~~~~-2~~~~-7~~~~-5~~~~----------|    
A|--5~~~~-2~~~~-5~~~~-3~~~~----------|     
E|--3~~~~-0~~~~----------------------|

LEAD bridge - this is a rough guide, just follow the snare
                                   ___________________________  play 10th fret on the
                                  |                             e string every 4th time
e|--7--7-7-7-7--7--7--7-7-7-7--7--7--7-7-7-7--7--7--7-7-7-7-7-7-7-7-|
B|--8--8-8-8-8--8--8--8-8-8-8--8--8--8-8-8-8--8--8--8-8-8-8-8-8-8-8-|
G|--7--7-7-7-7--7--7--7-7-7-7--7--7--7-7-7-7--7--7--7-7-7-7-7-7-7-7-|
D|------------------------------------------------------------------|      
A|------------------------------------------------------------------|     
E|------------------------------------------------------------------|

OR

                                               ___________________________  play 15th fret on the
                                              |                             b string every 4th time
e|--------------------------------------------------------------------------------------------|
B|-12--12-12-12-12--12--12--12-12-12-12--12--12--12-12-12-12--12--12--12-12-12-12-12-12-12-12-|
G|-12--12-12-12-12--12--12--12-12-12-12--12--12--12-12-12-12--12--12--12-12-12-12-12-12-12-12-|
D|-12--12-12-12-12--12--12--12-12-12-12--12--12--12-12-12-12--12--12--12-12-12-12-12-12-12-12-|      
A|--------------------------------------------------------------------------------------------|     
E|--------------------------------------------------------------------------------------------|


--


Break x2
e|-------------------------------------------------------------------------|
B|--7-7-7-8-8-8-8-8-t-t-t-8-8-8-8-8-7-7-7-8-8-8-8-8-7-7-7-8-8-8-8-8--------|
G|--7-7-7-7-7-7-7-7-7-7-7-7-7-7-7-7-7-7-7-7-7-7-7-7-7-7-7-7-7-7-7-7--------|
D|-------------------------------------------------------------------------|    
A|-------------------------------------------------------------------------|     
E|-------------------------------------------------------------------------|

OR

e|-------------------------------------------------------------------------------------------------|
B|-------------------------------------------------------------------------------------------------|
G|-11-11-11-12-12-12-12-12-11-11-11-12-12-12-12-12-11-11-11-12-12-12-12-12-11-11-11-12-12-12-12-12-|
D|-12-12-12-12-12-12-12-12-12-12-12-12-12-12-12-12-12-12-12-12-12-12-12-12-12-12-12-12-12-12-12-12-|
A|-------------------------------------------------------------------------------------------------|
E|-------------------------------------------------------------------------------------------------|


--


RHYTHM chorus
e|-------------------------------------------------------------------------|
B|-------------------------------------------------------------------------|
G|--5-5-5-5-5-5-5-5-----------------7-7-7-7-7-7-7-7-7-7-7-7-7-7-7-7--------|
D|--5-5-5-5-5-5-5-5-5-5-5-5-5-5-5-5-7-7-7-7-7-7-7-7-7-7-7-7-7-7-7-7--------|      
A|--3-3-3-3-3-3-3-3-5-5-5-5-5-5-5-5-5-5-5-5-5-5-5-5-5-5-5-5-5-5-5-5--------|     
E|------------------3-3-3-3-3-3-3-3----------------------------------------|

LEAD chorus (t = 10th fret)
e|-------------------------------------------------------------------------|
B|--7-7-7-8-8-8-8-8-t-t-t-8-8-8-8-8-7-7-7-8-8-8-8-8-7-7-7-8-8-8-8-8--------|
G|--7-7-7-7-7-7-7-7-7-7-7-7-7-7-7-7-7-7-7-7-7-7-7-7-7-7-7-7-7-7-7-7--------|
D|-------------------------------------------------------------------------|      
A|-------------------------------------------------------------------------|     
E|-------------------------------------------------------------------------|

OR

e|-------------------------------------------------------------------------------------------------|
B|-------------------------------------------------------------------------------------------------|
G|-11-11-11-12-12-12-12-12-11-11-11-12-12-12-12-12-11-11-11-12-12-12-12-12-11-11-11-12-12-12-12-12-|
D|-12-12-12-12-12-12-12-12-12-12-12-12-12-12-12-12-12-12-12-12-12-12-12-12-12-12-12-12-12-12-12-12-|
A|-------------------------------------------------------------------------------------------------|
E|-------------------------------------------------------------------------------------------------|

Lead line
e|--12-------12-------12----14-------17-------17---------------------------|
B|-----15-15----15-15----15----15-15----15-15------------------------------|
G|-------------------------------------------------------------------------|
D|-------------------------------------------------------------------------|     
A|-------------------------------------------------------------------------|     
E|-------------------------------------------------------------------------|


--


Outro - 2nd time round, end on first G
e|-------------------------------------------------------------------------|
B|-------------------------------------------------------------------------|
G|-------------------------------------------------------------------------|
D|--5-5-5-5-5-5-5-5-5-5-5-5-5-5-5-5----------------------------------------|      
A|--2-2-2-3-3-3-3-3-5-5-5-5-5-5-5-5----------------------------------------|     
E|------------------3-3-3-3-3-3-3-3----------------------------------------|

e|-------------------------------------------------------------------------|
B|-------------------------------------------------------------------------|
G|----------------------12---12---12---12----------------------------------|
D|-------------------------------------------------------------------------|     
A|-------------------10---10---10---10-------------------------------------|     
E|-------------------------------------------------------------------------|
Tap to rate this tab
# A B C D E F G H I J K L M N O P Q R S T U V W X Y Z