Song name
# A B C D E F G H I J K L M N O P Q R S T U V W X Y Z

You Me At Six - Lived A Lie tab

Hi! Just found You Me At Six newest song 'Lived A Lie' and thought that you guys might 
want to have some tabs since we all now this band is pretty fun to make covers of!

Twitter: Avedept (If you want to hear my band)

STANDARD TUNE
No capo

Intro/Verse

e l--------------------------------------------|l
B l--------------------------------------------|l
G l--0--0--0--0--0--0----0--0--0--0--0--0------|l
D l--5--5--5--5--5--5----5--5--5--5--5--5------|l
A l--2--2--2--3--3--3--------------------------|l
E l----------------------3--3--3--3--3--3------|l


Alternative Verse with acoustic guitar:
    D/B  Cadd2  G
l----x-----0----x--------1-|
1----3-----3----3--------1-|
1----2-----0----0--------1-|
1----0-----2----0--------1-|
1----2-----3----2----------|l
l---------------3----------|l


Chorus

Listen to the song and find the rhytm!
l---------------------------------1-|
1---------------------------------1-|
1----5---------------7------------1-|
1----5-------5-------7------------1-|
1----3-------5-------5--------------|l
l------------3----------------------|l


If you are playing a Acoustic guitar it might sound better with these 3 chords on the chorus!

    C     G    D/F#
l---0-----x-----x----------|l
l---1-----1-----3----------|l
l---0-----0-----2----------|l
l---2-----0-----0----------|l
l---3-----2-----x----------|l
l---------3-----2----------|l

After the second chorus there comes a little bridge between another chorus.
It's the same chords as in the chorus but little faster and another strumming pattern.


Then there is this chill part with some snare and some choir.
It's only a bass that goes like this:

l---------------------------1-|
1---------------------------1-|
1---------------------------1-|
1---------------------------1-|
1-----------5----3------------|l
l---3---0---------------------|l

or if you want to play it with a guitar:

l------------------------------1-------|
1-------------------------------1------|
1-------9---7---5------------------1---|
1---5---9---7---5-------------------1--|
1---5---7---5---3----------------------|l
l---3----------------------------------|l

After that there is a chorus and that little bridge again and some classis stuff! 
Hope you like it!
Tap to rate this tab
# A B C D E F G H I J K L M N O P Q R S T U V W X Y Z