Song name
# A B C D E F G H I J K L M N O P Q R S T U V W X Y Z

You Me At Six - Lived A Lie tab

You Me At Six - Lived A Lie

Intro/Verse:

Guitar 1

e|------------------------------------------------|
b|-(0)(0)(0)--------------------------------------|
g|--4--4--4---5--5--5--5--(0)(0)(0)(0)(0)(0)(0)(0)|
d|--x--x--x---x--x--x--x---5--5--5--5--5--5--5--5-|
a|--2--2--2---3--3--3--3---x--x--x--x--x--x--x--x-|
e|-------------------------3--3--3--3--3--3--3--3-|

Guitar 2 (Starts at 0:23)

e|---3-|
b|-----|
g|-----|
d|-5---| x5
a|-----|
e|-----|

Chorus:

Guitar 1

e|-----------------------|
b|-----------------------|
g|-5-------------7-------|
d|-5-(x8)-5------7-(x16)-| x2
a|-3------5-(x8)-5-------|
e|--------3--------------|

Guitar 2 (0:47)

e|-12-------12-------12----14-------17-------17----|
b|----15-15----15-15----15----15-15----15-15----15-|
g|-------------------------------------------------|
d|-------------------------------------------------|
a|-------------------------------------------------|
e|-------------------------------------------------|

(Verse 2):

Guitar 2 (1:04)
e|-------------------|
b|-10/12-10-12-10----|
g|----------------12-| (x2)
d|-------------------|
a|-------------------|
e|-------------------|

(Chorus 2)


WE ARE BELIEVERS:

e|-7-|
b|-8-|
g|---| (Listen for rhythm)
d|---|
a|---|
e|---|

Breakdown: (2:27) 

e|-2-2-2--3-3-3-3-3--5-5-5--3-3-3-3-3--2-2-2--3-3-3-3-3--2-2-2--3-3-3-3-3|
b|-3-3-3--3-3-3-3-3--3-3-3--3-3-3-3-3--3-3-3--3-3-3-3-3--3-3-3--3-3-3-3-3|
g|-----------------------------------------------------------------------|
d|-----------------------------------------------------------------------|
a|-----------------------------------------------------------------------|
e|-----------------------------------------------------------------------|

e|-2-2-2--3-3-3-3-3--5-5-5--3-3-3-3-3--2-2-2--3-3-3-3-3--2-2-2-2--3-|
b|-3-3-3--3-3-3-3-3--3-3-3--3-3-3-3-3--3-3-3--3-3-3-3-3--3-3-3-3--3-|
g|------------------------------------------------------------------|
d|------------------------------------------------------------------|
a|------------------------------------------------------------------|
e|------------------------------------------------------------------|
  

(Chorus 3)


Ending:

e|------------------------------------------------|
b|-(0)(0)(0)--------------------------------------|
g|--4--4--4---5--5--5--5--(0)(0)(0)(0)(0)(0)(0)(0)|
d|--x--x--x---x--x--x--x---5--5--5--5--5--5--5--5-|
a|--2--2--2---3--3--3--3---x--x--x--x--x--x--x--x-|
e|-------------------------3--3--3--3--3--3--3--3-|

e|------------------------------|
b|-(0)(0)(0)--------------------|
g|--4--4--4---5--5--5--5-5--(0)-|
d|--x--x--x---x--x--x--x-x---5--| (Hold last chord)
a|--2--2--2---3--3--3--3-3---x--|
e|---------------------------3--|
Tap to rate this tab
# A B C D E F G H I J K L M N O P Q R S T U V W X Y Z