Song name
# A B C D E F G H I J K L M N O P Q R S T U V W X Y Z

You Me At Six - Tigers And Sharks tab

I think this is right, watched an acoustic version and looks accurate.


e--------------------------------------|
B--------------7--------------7-8-7----|
G-----------7--0-----------7--0-0-0----| 
D-------7-0----0-------7-0----0-0-0----|
A---5/7------------5/7-----------------|
E--------------------------------------|


e--------------0--------------0----|
B--------------0--------------0----|
G-------4-0-2--5-------4-0-2--5----|    These are the intros, listen to the
D--------------0--------------0----|    song for timings.
A---3/5--------3---3/5--------3----|
E--------------0--------------0----|


e--x----x----x----x----|
B--x----x----x----x----|
G--9----7----7----7----| These are the chords. Again, listen to the song.
D--9----9----5----7----|
A--7----9----3----5----|
E--x----x----x----x----|
   E    Bm   C9   D
Tap to rate this tab
# A B C D E F G H I J K L M N O P Q R S T U V W X Y Z