Song name
# A B C D E F G H I J K L M N O P Q R S T U V W X Y Z

You Me At Six - No One Does It Better chords

Highlighted       Show chord diagrams
Hey guys. This is my first tab- I decided to rewrite this one because there aren't 
many good, correct tabs for this song. This is quite easy to play. I tried to 
incorporate the riff into the chords. Anyway, this is how I like to play it, and 
if you have questions submit them on my tumblr at xthegreatdivide. :) 


         D*
e|--------0----|
B|--------3----|
G|--------0----|
D|--------4----|
A|--------5----|
E|--------5----|

Plucking pattern for the verse is-
            
e|-----------3---3----2---------0------0-----0----0------0------------------|
B|-----------3---3----3---------1------1-----1----1------1------------------|
G|-----0--------------2---------0------0-----0----0------0------------------|
D|------------------------------2-------------------------------------------|
A|---2----------------0---------3---3-----3-----------3---------------------|
E|--------------------------------------------------------------------------|

e|-----------3---2----7---0-------------------------------------------------|
B|-----------3---3--------1-------------------------------------------------
G|-----0---------2--------0-------------------------------------------------|
D|------------------------2-------------------------------------------------|
A|---2-----------0--------3-------------------------------------------------|
E|--------------------------------------------------------------------------|
 

Em                   D        C  
I woke up this morning with a grudge the size of a short story, oh,
Em         D       Cadd9
I feel, I feel so low
Em                      D             C                    
Let me start at the end, the part I haven't figured out yet
      Em        D        Cadd9
Yes, I am, I'm moving slow


Em                   D
You are playing the lead
               C
The headache that my actions feed
         Em          D       Cadd9
Oh I've only got myself to blame
Em                         D       C
This is another test which I would fail when at my best,
     Em        D         Cadd9
Oh, always ending the same


Am                  Cadd9
If I were an honest guy
Am                         D
I'd give this role another try


Cadd9                   G               D
What do I do when I am so in love with you?

I forgot what I wanted to say
Cadd9                        G      
What do I do when you won't change your ways?
     D*
It's time, it's time

          Cadd9 G    D
If I just saved you, you could save me too
          Cadd9 G    D*                     Em
If I just saved you, then you could save me too


Em                  D            C
I woke up the next morning and I didn't see it coming
     Em             D          Cadd9
Oh, your bags were packed and gone
Em                  D                    C
Called all your friends, they said they hadnít seen you yet
    Em              D     Cadd9
Oh, my head's going to explode

Am                   Cadd9
If I were an honest guy
Am                         D
I'd give this role another try

Cadd9                  G                D
What do I do when I am so in love with you?

I forgot what I wanted to say
Cadd9                        G      
What do I do when you won't change your ways?
     D*
It's time, it's time

          Cadd9 G    D
If I just saved you, you could save me too
          Cadd9 G    D*                     Em
If I just saved you, then you could save me too


Em                                 Cadd9            D*
I believe in the finer things, and you don't believe in me
        Em                                 Cadd9        D*
I said, I believe in the finer things, and you don't believe in me
        Em                                 C   D
I said, I believe in the finer things, and you don't

          Cadd9  G   D
If I just saved you, you could save me too
          Cadd9  G   D*
If I just saved you, then you could save, you could save me too

Cadd9                   G              D
What do I do when I am so in love with you?

I forgot what I wanted to say
Cadd9                   G               D
What do I do when I am so in love with you?
            
I forgot what I wanted to say

          Cadd9     G       D
If I just saved you
(No one does it better,
No one does it better,
No one does it,
No one does it better)
         Cadd9      G        D
If I just saved you
(No one does it,
No one does it better,
No one does it,
No one does it)

   Em                  D      C
I woke up this morning with a grudge the size of a short story,
      Em         D         Cadd9
Which now I have told you all

Thanks guys :)
Tap to rate this tab
# A B C D E F G H I J K L M N O P Q R S T U V W X Y Z