Song name
# A B C D E F G H I J K L M N O P Q R S T U V W X Y Z

You Me At Six - Fresh Start Fever tab

---------------------------------------------------------------------------
You Me At Six - Fresh Start Fever
---------------------------------------------------------------------------
Tabbed by: Shaun Monkhouse
Tuning - E Standard

Rhythm Guitar - Max Helyer 

Verses
E|-----------------------------------------------------------------|
B|-----------------------------------------------------------------|
G|-----------------------------------------------------------------|
D|-----------------------------------------------------------------|
A|-3-3-3-6-6-6-6-6-6-6-6-6-6-6-6-6-3-3-3-6-6-6-6-6-6-6-6-6-6-6-6-6-|
E|-----------------------------------------------------------------| 
 
E|-----------------------------------------------------------------|
B|-----------------------------------------------------------------|
G|-----------------------------------------------------------------|
D|---------------------------------------------------------6-5-3---|
A|-2-2-2-5-5-5-5-5-5-5-5-5-5-5-5-5-2-2-2-5-5-5-5-5-5-5-5-5-------6-|
E|-----------------------------------------------------------------|

E|-----------------------------------------------------------------|
B|-----------------------------------------------------------------|
G|-----------------------------------------------------------------|
D|---------------------------------------------------------3-5-3-5-|
A|-3-3-3-6-6-6-6-6-6-6-6-6-6-6-6-6-3-3-3-6-6-6-6-6-6-6-6-6---------|
E|-----------------------------------------------------------------|

E|-----------------------------------------------------------------|
B|-----------------------------------------------------------------|
G|-----------------------------------------------------------------|
D|---------------------------------------------------------6-5-3---|
A|-2-2-2-5-5-5-5-5-5-5-5-5-5-5-5-5-2-2-2-5-5-5-5-5-5-5-5-5-------6-|
E|-----------------------------------------------------------------|

Pre Choruses
E|-----------------------------------------------------------------|
B|-----------------------------------------------------------------|
G|-5-5------------------3-3----5-5------------------3--------------|
D|-5-5----6-6----3-3----3-3----5-5----6-6----3-3----3--------------|
A|-3-3----6-6----3-3----1-1----3-3----6-6----3-3----1--------------|
E|--------4-4----1-1------------------4-4----1-1-------------------|

Choruses
E|---------------------------------------    ----------------------|
B|---------------------------------------    ----------------------|
G|-55555555-------------------33333333---    -5~-------------------|
D|-55555555-66666666-33333333-33333333---    -5~-------------------|
A|-33333333-66666666-33333333-11111111---    -3~-------------------|
E|----------44444444-11111111------------ x2 ----------------------|

Repeat all (2nd Chorus X4 instead of X2)

Bridge (Join 2:34)
E|-----------------------------------------------------------------|
B|-----------------------------------------------------------------|
G|-5-5---5-----5-5-7-7---7-----7-7-8-8---8-----8-8-1010--10----1010|
D|-5-5---5-----5-5-7-7---7-----7-7-8-8---8-----8-8-1010--10----1010|
A|-3-3---3-----3-3-5-5---5-----5-5-6-6---6-----6-6-8-8---8-----8-8-|
E|-----------------------------------------------------------------| 
   1+2+3+4+1+2+3+4+1+2+3+4+1+2+3+4+1+2+3+4+1+2+3+4+1+2+3+4+1+2+3+4+ 




E|-----------------------------------------------------------------|
B|-13-----------15-----------16-----------18-------19--------------|
G|-15b17--------17b19--------18b20--------20b22----21b23-----------|
D|-----------------------------------------------------------------|
A|-----------------------------------------------------------------|
E|-----------------------------------------------------------------|
Each bend at the timing of the previous bar & Last Two Bend at Half Time

Chorus (Same As 2nd Chorus & Miss Out Last Chord)

Ending
E|-----------------|
B|-----------------|
G|-5-5---5-----5-5-|
D|-5-5---5-----5-5-|
A|-3-3---3-----3-3-|
E|-----------------|
   1+2+3+4+1+2+3+4+
 
Lead Guitar - Chris Miller

Verses 
E|-----------------------------------------------------------------|
B|-8~------------------------------8~------------------------------|
G|-8~------------------------------8~------------------------------|
D|-10~-----------------------------10~-----------------------------|
A|-----------------------------------------------------------------|
E|-----------------------------------------------------------------| 

E|-----------------------------------------------------------------|
B|-3~------------------------------3~------------------------------|
G|-1~------------------------------1~------------------------------|
D|-3~------------------------------3~------------------------------|
A|-----------------------------------------------------------------|
E|-----------------------------------------------------------------| 

E|---------------------------------8~------------------------------|
B|-8~--------------------------------8~----------------------------|
G|-8~----------------------------------8~--------------------------|
D|-10~-------------------------------------------------------------|
A|-----------------------------------------------------------------|
E|-----------------------------------------------------------------| 

Pre Choruses
E|-11-----10-----8-----8-----8---8---    --8~----------------------|    
B|----8-8----8-8---8-8---8-8---8---8-    --8~----------------------|  
G|-----------------------------------    --------------------------|
D|-----------------------------------    --------------------------|
A|-----------------------------------    --------------------------|
E|----------------------------------- X4 --------------------------|
On 4th Repeat Miss Out the Last Four Notes and Move two the next bar

Choruses                                     
|  E|--------------------    --------------- |    ----------------|
|  B|---------9-11-13----    --------------- |    ----------------|
|  G|--10-8--------------    -7-5-7-5-7-5-7- |    -5~-------------|
|  D|-------10-----------    --------------- |    ----------------|
|  A|--------------------    --------------- |    ----------------|
|  E|-------------------- X3 --------------- | X2 ----------------|
|_    1 +  2 + 3 + 4 +       1+ 2 + 3 + 4 + _|

Repeat all (2nd Chorus X4 instead of X2)

Bridge
E|-11-----10-----8-----8-----8---8---11-----10-----8-----8-----8---8---|    
B|----8-8----8-8---8-8---8-8---8---8----8-8----8-8---8-8---8-8---8---8-|    
G|---------------------------------------------------------------------|    
D|---------------------------------------------------------------------|    
A|---------------------------------------------------------------------|    
E|---------------------------------------------------------------------|X8

Chorus (Same As 2nd Chorus) 

Ending (Hold Last Note Of Chorus)
Tap to rate this tab
# A B C D E F G H I J K L M N O P Q R S T U V W X Y Z