Song name
# A B C D E F G H I J K L M N O P Q R S T U V W X Y Z

You Me At Six - Room To Breathe tab

very first tab :D

Not 100% accurate but sounds right,
learned by ear..

tuning : eBGDAE

e|-----------------------------------------------------------------|
B|-7-7-7-7-7-7-7s5-5-5-5-5-5s7-7-7-7s5-5-5-5-5-5-5-5s7-7-7-7-7-7-7-|
G|-----------------------------------------------------------------|
D|-----------------------------------------------------------------|
A|-----------------------------------------------------------------|
E|-----------------------------------------------------------------|


e|---------------------------------------------------------------------------|
B|-7-7-7---------------------------------------------------------------------|
G|-------4-4-4-4-4-4-4-------------------------------------------------------|
D|---------------------6-6-6-7-7-7-4-4-4-------------------------------------|
A|---------------------------------------------------------------------------|
E|---------------------------------------------------------------------------|
Tap to rate this tab
# A B C D E F G H I J K L M N O P Q R S T U V W X Y Z