Song name
# A B C D E F G H I J K L M N O P Q R S T U V W X Y Z

You Say Party We Say Die - Like I Give A Care tab

Like I Give a Care
You Say Party! We Say Die!
Lose All Time

Tabbed by: Jaden Sherrard


Intro 
e|---------------------------|
B|---------------------------|
G|--5--------9---------------|
D|--5-(x24)--9-(x8)--7-------| x3
A|--3--------7-------7-(x18)-|
E|-------------------5-------|

Verse
e|-------------------------|
B|-------------------------|
G|--------------9---4-4-4--|
D|-----9-7-9-7----7--------|
A|--12---------------------|
E|-------------------------|

After Verse 1
e|---------|
B|---------|
G|---------|
D|-7-5-7-9-| (just repeat 
A|---------| until verse 2)
E|---------|

Verse 2
e|---------------------|
B|---------------------|
G|--4-4-4-6-7-2-2-2-2--|
D|---------------------|
A|---------------------|
E|---------------------|

Pre-Chorus
e|-----------------------|
B|-----------------------|
G|--------2-----------2--|
D|-0--0-0----0--0-0-0----|
A|-----------------------|
E|-----------------------|

Chorus 1 (oh girls can be so mean)
e|-----------------------------------------|
B|-----------------------------------------|
G|-2--2-2-2-0--0-0-0-0-4--4-4-4-5--5-5-5-5-|
D|-----------------------------------------|
A|-----------------------------------------|
E|-----------------------------------------|

Chorus 2 (on your own)
e|---------------------------|
B|---------------------------|
G|--5--------9---------------|
D|--5-(x24)--9-(x8)--7-------| 
A|--3--------7-------7-(x18)-|
E|-------------------5-------|

-End With Chorus 2-
Tap to rate this tab
# A B C D E F G H I J K L M N O P Q R S T U V W X Y Z