Song name
# A B C D E F G H I J K L M N O P Q R S T U V W X Y Z

Youinseries - When And Where A Real World Occurs tab

www.youinseries.com

Tuning: Drop D flat

eb
bb
Gb
Db
Ab
Db

MAIN RIFF
-3-2-0-0-3-2-0------------------|
--0-0-3-3-0-0--3/10-0-----------|
--------------------------------|
--------------------------------|
--------------------------------|
--------------------------------|

if you play around with that enough, you can get the chorus down.

-----2--------------------------|
----0-0-------------------------|
---2---2------------------------|
--1-----1-----------------------|
-2------------------------------|
--------------------------------|

that's the little interlude part, and also the chord that's played right before the chorus.


sorry i don't have a lot of the rhythm guitar down.
i've got other lead parts of other youinseries songs posted on their message boards.
Tap to rate this tab
 
# A B C D E F G H I J K L M N O P Q R S T U V W X Y Z