Guitaretab - guitar tabs
Song name
# A B C D E F G H I J K L M N O P Q R S T U V W X Y Z

Youinseries - Weve All Wandered Out Of Reach tab

Tuning
eb
bb
Gb
Db
Ab
Db


GUITAR I
--5--5----5--5---|
---7--7----7--7--|
-4-------4-----4-|
-----------------|x2
-----------------|
-----------------|
[ Tab from: http://www.guitaretab.com/y/youinseries/87111.html ]
--9---9-----9--9------9--9---9----9--|
---10--10----10-10-----10-10--10-----|
-7---------7------7--7------7---7----|
-------------------------------------|
-------------------------------------|
-------------------------------------|

GUITAR II
(rest for first bar)
-----------------12-12------------12-12--------------|
----3---3--5-3--------10---------------10------------|
---2-2-2-2----4---------11h12p11-9-------11h12p11-9--|
--1--------------------------------------------------|
-2---------------------------------------------------|
-----------------------------------------------------|
Related for Weve All Wandered Out Of Reach tab
Advertisement will be closed in 10 seconds