Song name
# A B C D E F G H I J K L M N O P Q R S T U V W X Y Z

Young Chinese Dogs - Dont Talk About tab

-------------------------------------------------------------------------------
			     Don't Talk About - Young Chinese Dogs
-------------------------------------------------------------------------------
Tuning: Standard
Capo 2

Original key is B Minor. Song is tabbed in A Minor, played with capo on 2nd fret (as
seen in this video http://www.youtube.com/watch?v=q4TVqIRv9ec). There is an easy but
effective little riff going on in the intro and continued in the verses.


Intro:  ||Am |E  |G |Am || 2x

Verse1: ||Am |E  |G |Am || 2x
I pack my things and go, easy and smooth
I try to keep my head low, I get back on the road

Bridge:  ||D7   |D7  |E7   |E7   ||
We all die but stick around, why do we fix what must down?

Chorus: ||Am |E  |G |Am || 2x
But YOU don't talk about it, everybody's been there, ain't no doubt
but YOU just stay around, we all gonna leave, I pay that round
||Am |E  |G |Am || 1x (*Fill A)

Verse2: ||Am |E  |G |Am || 2x
Caught up in a trap,  got signed of and sacked
How can I feel so high? My bowie knife cut me loose

Bridge:  ||D7   |D7  |E7   |E7   ||
We all die but stick around, why do we fix what must down?

Chorus: ||Am |E  |G |Am || 2x
But YOU don't talk about it, everybody's been there, ain't no doubt
but YOU just stay around, we all gonna leave, I pay that round

Solo ||Am |E  |G |Am || 4x

Downer Verse: ||Am |E  |G |Am || 2x
I pack my things and go, easy and smooth
I try to keep my head low, so I get back on the road
Bridge:  ||D7   |D7  |E7   |E7  |E7  |E7  ||
We all gonna die but stick around, why do we fix what must down?

Chorus: ||Am |E  |G |Am || 2x
But YOU don't talk about it, everybody's been there, ain't no doubt
but YOU just stay around, we all gonna leave, I pay that round
Chorus: ||Am |E  |G |Am || 2x
But YOU don't talk about it, everybody's been there, ain't no doubt
but YOU just stay around, we all gonna leave, I pay that round
|Am ….||

END

-------------------------------------------------------------------------------

Chords:

    Am    E     G     D7    E7
e|--0--|--0--|--3--|--2--|--0--|
B|--1--|--0--|--3--|--1--|--0--|
G|--2--|--1--|--0--|--2--|--1--|
D|--2--|--2--|--0--|--0--|--0--|
A|--0--|--2--|--2--|--x--|--2--|
E|--x--|--0--|--3--|--x--|--0--|

Intro Riff
    Am               E                 G                 Am
    1  2  3 + 4 +    1  2  3 +  4 +   1   2 3 +  4 +    1   2 3 +  4 +
e|-----0------0-0-|-----0-------0-0-|-----3------3-3--|-----0------0-0--|
B|-----1------1-1-|-----0-------0-0-|-----3------3-3--|-----1------1-1--|
G|-----2------2-2-|-----1-------1-1-|-----0------0-0--|-----2------2-2--|
D|-----2--0h2-----|-----2--0h2------|-----0-----------|-----2--0h2------|
A|--0-------------|-----------------|-------0h2-------|--0--------------|
E|----------------|--0--------------|--3--------------|-----------------|


Fill A
e|---0----0---0--0---0---0--|--0---0---0--0------------|
B|---3/5----5----3h5---5----|--3/5---5----3--0--0--0---|
G|--------------------------|----------------4--2--0---|
D|--------------------------|--------------------------|
A|--------------------------|--------------------------|
E|--------------------------|--------------------------|

Solo

e|-0---0---0--0---0---0--|-0---0---0--0----------|
B|-3/5---5----3h5---5----|-3/5---5----3--0--0--0-|
G|-----------------------|---------------4--2--0-|  (2x)
D|-----------------------|-----------------------|
A|-----------------------|-----------------------|
E|-----------------------|-----------------------|

e|-0---0---0--0---0---0---0---0----0----------------|
B|-3/5---5----3h5---5-----3h5---5----/10--8--5--3---|
G|--------------------------------------------------|
D|--------------------------------------------------|
A|--------------------------------------------------|
E|--------------------------------------------------|

e|-------0--------------0--|
B|--3/10---10--8--5--3--5--|
G|-------------------------| (2x)
D|-------------------------|
A|-------------------------|
E|-------------------------|

e|-0---------0-------0-0----0---0-0-0-0-0------|
B|-3/10-(10)-10-10-8-3-5----3h5-5-5-5-3-0-0-0--|
G|----------------------------------------2-0--|
D|---------------------------------------------|
A|---------------------------------------------|
E|---------------------------------------------|

************************************

| /   slide up
| \   slide down
| H   hammer-on
| p   pull-off
| ~   vibrato
| +   harmonic
| x   Mute note
| B   Bend
| pb  Pre-bend
| br  Bend release
| pbr Pre-bend release
| brb Bend release bend

************************************
Tap to rate this tab
# A B C D E F G H I J K L M N O P Q R S T U V W X Y Z