Guitaretab - guitar tabs
Song name
# A B C D E F G H I J K L M N O P Q R S T U V W X Y Z

Young Galaxy - Embers tab

Great song from a great album by a great band.

CAPO THIRD FRET
Here's the verse riff:

E------------------------------------------|
B------1-----------------------------------|
G--------0-----0-----------0---------------|
D-----------3-----2---2/3-----3------------|
A--3-----------------------------0---------|
E------------------------------------------|
repeat until:
"...afraid I've lost my way..."

E------------------------------------------------------------------|
B------1-----------------------------------------------------------|
G---------0-----0----------0---------------------------------------|
D------------3---------2/3----3------------------------------------|
A--3---------------0-------------0---------------------------------|
E------------------------------------------------------------------|
[ Tab from: http://www.guitaretab.com/y/young-galaxy/94495.html ]
"...set out like a scout...." - repeat verse riff

Second verse, same as the first


Am                      F                       C                G
Father, mother, I burn so true
Am                                    F                     C             G
My blaze is brighter when near to you
Am                              F                           C                G
I shoot and spark without your fuel
Am                         F                        C               G
An ember from the heart of you

"Brothers, sisters, I burn for you...." - same thing until:

F                             Am                  F               Am
An ember from the heart of you
F                             Am                   F               Am
An ember from the heart of you


ends on an Am chord.

Young galaxy:
http://www.arts-crafts.ca/younggalaxy/index.html