Young Guns - There Will Be Rain tab

okay, this is my 1st tab ... i KNOW it definitely isn't exact, it's more like a 'fairly 
accurate interpretation'  but it works along to the song and i've played it on acoustic 
and electric and it sounds okay to me!

listen to the song for timings :)

(the verse can change timings to be the intro too)



INTRO, BRIDGE & 1ST HALF OF OUTRO:

e|------------------------------------------------------------------|
B|------------------------------------------------------------------|
G|--4h5h6-6---4h5h6-6-6-8-8-----4-4---4h5h6-6---4h5h6-6-6-----------|  X2
D|--------------------------4h6---------------------------6h4-------|
A|------------------------------------------------------------6h4---|
E|------------------------------------------------------------------|

VERSE:

e|--------------|
B|-----------2--|
G|--6--9--4--2--|
D|--6--9--4--2--| X2
A|--4--7--2-----|
E|--------------|

CHORUS:

e|-----------------|
B|-----------2-----|
G|--6--9--4--2--4--|
D|--6--9--4--2--4--| X2
A|--4--7--2-----2--|
E|-----------------|

OUTRO 2:

e|--------------------------------|
B|--------------------------------|
G|--------------------------------| X2
D|--------------------------------|
A|----0-4---0-4----0-4---------4--|
E|--1------1-----1-----4-6-8-4----|


Again, it's not perfect but it works for me
Tap to rate this tab
 
# A B C D E F G H I J K L M N O P Q R S T U V W X Y Z