Guitaretab - guitar tabs
Song name
# A B C D E F G H I J K L M N O P Q R S T U V W X Y Z

Young Guns - Stitches tab

This is stitches by young guns and its my first tab so don't expect it to be brilliant!
Enjoy!

Bass intro:
e|---------------------------------------------------------------------------|
B|---------------------------------------------------------------------------|
G|---------------------------------------------------------------------------|
D|---------------------------------------------------------------------------|
A|---------------------------------------------------------------------------|
E|4x8-0x8-x4-2x8-0x8---------------------------------------------------------|

Lead intro/ chorus:                         1st time ending
e|---------------------------------|----------------|---------------------------|
B|---------------------------------|----------------|---------------------------|
G|---------------------------------|----------------|--------13-----------------|
D|9--------13-13-13-13-13-13-13-13-|-13-11----------|--13-11--------------------|
A|--11-6/7-------------------------|-------11-9/11--|---------------------------|
E|---------------------------------|----------------|---------------------------|
[ Tab from: http://www.guitaretab.com/y/young-guns/297297.html ]
Rhythm intro/ chorus:
e|------------------------------------------------------------------------------|
B|------------------------------------------------------------------------------|
G|------------------------------------------------------------------------------|
D|-6----2----9----4-------------------------------------------------------------|
A|-6-x8-2-x8-9-x8-4-x8----------------------------------------------------------|
E|-4----0----7----2-------------------------------------------------------------|
Verse: There is only rhythm guitar in the verse
  pm............
e|---------------------------------------------------------------------------|
B|---------------------------------------------------------------------------|
G|---------------------------------------------------------------------------|
D|---------------------------------------------------------------------------|
A|-4-----2------x2-----------------------------------------------------------|
E|-2-x16-0-x16---------------------------------------------------------------|

Solo:
e|-11-------11-------11----14-------16-------16-------|---16---16--16---16---|
B|----------------------------------------------------|----------------------|
G|----13-13----13-13----13----13-13----13-13----13-x2-|-15---15--15---15-----|
D|----------------------------------------------------|----------------------|
A|----------------------------------------------------|----------------------|
E|----------------------------------------------------|----------------------|

e|----18----18---19-|-----------------------------------------------------------|
B|------------------|-12-9-11-7-9-2b0--------------------12----------2b0--------|
G|-15----15---15----|----------------------------11---------15-11-13------------|
D|------------------|----------------6x4-8x4-9x4----13-13-----------------------|
A|------------------|-----------------------------------------------------------|
E|------------------|-----------------------------------------------------------|

e|------------------------------------16-------------------------------------|
B|-12-9-9-12-9-9-12-9-9-14-9-9-14-9-9----------------------------------------|
G|---------------------------------------------------------------------------|
D|---------------------------------------------------------------------------|
A|---------------------------------------------------------------------------|
E|---------------------------------------------------------------------------|

Thats it the solo isn't 100% correct but it works for me enjoy playing it


************************************

| /   slide up
| \   slide down
| h   hammer-on
| p   pull-off
| ~   vibrato
| +   harmonic
| x   Mute note
| b   Bend
| pb  Pre-bend
| br  Bend release
| pbr Pre-bend release
| brb Bend release bend

************************************
Related for Stitches tab
Stitches chords by Young Guns